  0
SECTION
  2
HEADER
  9
$ACADVER
  1
AC1018
  9
$HANDSEED
  5
FFFFFF
  9
$EXTMAX
 10
8417744.70099999942
 20
5761369.59800000023
 30
1000000.00
  9
$EXTMIN
 10
8417703.38599999994
 20
5761319.71200000029
 30
0.00
  9
$LIMMIN
 10
8417703.38599999994
 20
5761319.71200000029
  9
$LIMMAX
 10
8417744.70099999942
 20
5761369.59800000023
  9
$DIMASZ
 40
2.5
  9
$DIMGAP
 40
0.625
  9
$INSUNITS
 70
6
  9
$MEASUREMENT
 70
1
  9
$DIMEXO
 40
0.625
  9
$DIMTXT
 40
2.5
  9
$DIMSTYLE
  2
Standard
  9
$PLIMMIN
 10
0.0
 20
0.0
  9
$PLIMMAX
 10
210.0
 20
297.0
  9
$DIMEXE
 40
1.25
  9
$TEXTSIZE
 40
2.5
  9
$TEXTSTYLE
  7
Standard
  9
$LWDISPLAY
290
1
  9
$TDCREATE
 40
45803.616231273
  9
$TDUCREATE
 40
45803.532897940
  9
$TDUPDATE
 40
45803.616231273
  9
$TDUUPDATE
 40
45803.532897940
  9
$TDINDWG
 40
0.0
  9
$TDUSRTIMER
 40
0.0
  9
$USRTIMER
 70
1
  0
ENDSEC
  0
SECTION
  2
TABLES
  0
TABLE
  2
VPORT
  5
1
100
AcDbSymbolTable
 70
1
  0
VPORT
  5
2
100
AcDbSymbolTableRecord
100
AcDbViewportTableRecord
  2
*ACTIVE
 70
0
 10
0.0
 20
0.0
 11
1.0
 21
1.0
 12
8417724.043
 22
5761344.655
 13
0.0
 23
0.0
 14
1.0
 24
1.0
 15
0.0
 25
0.0
 16
0.0
 26
0.0
 36
1.0
 17
0.0
 27
0.0
 37
0.0
 40
49.886
 41
0.828
 42
50.0
 43
0.0
 44
0.0
 50
0.0
 51
0.0
 71
0
 72
100
 73
1
 74
1
 75
0
 76
0
 77
0
 78
0
  0
ENDTAB
  0
TABLE
  2
LTYPE
  5
3
100
AcDbSymbolTable
 70
3
  0
LTYPE
  5
4
100
AcDbSymbolTableRecord
100
AcDbLinetypeTableRecord
  2
ByBlock
 70
0
  3

 72
65
 73
0
 40
0.0
  0
LTYPE
  5
5
100
AcDbSymbolTableRecord
100
AcDbLinetypeTableRecord
  2
ByLayer
 70
0
  3

 72
65
 73
0
 40
0.0
  0
LTYPE
  5
6
100
AcDbSymbolTableRecord
100
AcDbLinetypeTableRecord
  2
CONTINUOUS
 70
0
  3
Solid line
 72
65
 73
0
 40
0.0
  0
LTYPE
  5
7
100
AcDbSymbolTableRecord
100
AcDbLinetypeTableRecord
  2
L_0_0C
 70
0
  3
Budynek_w_ruinie_Warstwica_pomocnicza
 72
65
 73
2
 40
3.0
 49
2.0
 74
0
 49
-1.0
 74
0
  0
ENDTAB
  0
TABLE
  2
LAYER
  5
8
100
AcDbSymbolTable
 70
3
  0
LAYER
  5
9
100
AcDbSymbolTableRecord
100
AcDbLayerTableRecord
  2
0
 70
0
420
0
  6
CONTINUOUS
370
18
390
A
  0
LAYER
  5
B
100
AcDbSymbolTableRecord
100
AcDbLayerTableRecord
  2
00_FUND_PROJ
 70
0
420
32575
  6
CONTINUOUS
370
35
390
A
  0
LAYER
  5
C
100
AcDbSymbolTableRecord
100
AcDbLayerTableRecord
  2
A_Siatka
 70
0
420
26316
  6
CONTINUOUS
370
18
390
A
  0
ENDTAB
  0
TABLE
  2
STYLE
  5
D
100
AcDbSymbolTable
 70
2
  0
STYLE
  5
E
100
AcDbSymbolTableRecord
100
AcDbTextStyleTableRecord
  2
STANDARD
 70
0
 40
0.0
 41
1.0
 50
0.0
 71
0
  3
simplex.shx
  4

  0
STYLE
  5
F
100
AcDbSymbolTableRecord
100
AcDbTextStyleTableRecord
  2
STANDARD_ITALIC
 70
0
 40
0.0
 41
1.0
 50
15.0
 71
0
  3
simplex.shx
  4

  0
ENDTAB
  0
TABLE
  2
VIEW
  5
10
100
AcDbSymbolTable
 70
0
  0
ENDTAB
  0
TABLE
  2
UCS
  5
11
100
AcDbSymbolTable
 70
0
  0
ENDTAB
  0
TABLE
  2
APPID
  5
12
100
AcDbSymbolTable
 70
1
  0
APPID
  5
13
100
AcDbSymbolTableRecord
100
AcDbRegAppTableRecord
  2
ACAD
 70
0
  0
ENDTAB
  0
TABLE
  2
DIMSTYLE
  5
14
100
AcDbSymbolTable
 70
1
100
AcDbDimStyleTable
  0
DIMSTYLE
105
15
100
AcDbSymbolTableRecord
100
AcDbDimStyleTableRecord
  2
Standard
 70
0
340
E
  0
ENDTAB
  0
TABLE
  2
BLOCK_RECORD
  5
16
100
AcDbSymbolTable
 70
2
  0
BLOCK_RECORD
  5
17
100
AcDbSymbolTableRecord
100
AcDbBlockTableRecord
  2
*Model_Space
340
18
  0
BLOCK_RECORD
  5
19
100
AcDbSymbolTableRecord
100
AcDbBlockTableRecord
  2
*Paper_Space
340
1A
  0
ENDTAB
  0
ENDSEC
  0
SECTION
  2
BLOCKS
  0
BLOCK
  5
1B
100
AcDbEntity
  8
0
100
AcDbBlockBegin
  2
*Model_Space
 70
0
 10
0.0
 20
0.0
 30
0.0
  3
*Model_Space
  1

  0
ENDBLK
  5
1C
100
AcDbEntity
  8
0
100
AcDbBlockEnd
  0
BLOCK
  5
1D
100
AcDbEntity
 67
1
  8
0
100
AcDbBlockBegin
  2
*Paper_Space
 70
0
 10
0.0
 20
0.0
 30
0.0
  3
*Paper_Space
  1

  0
ENDBLK
  5
1E
100
AcDbEntity
 67
1
  8
0
100
AcDbBlockEnd
  0
ENDSEC
  0
SECTION
  2
ENTITIES
  0
CIRCLE
  5
1F
100
AcDbEntity
  8
00_FUND_PROJ
  6
ByLayer
370
35
100
AcDbCircle
 10
8417716.92083499953
 20
5761333.18726931606
 40
12.705000000075
  0
CIRCLE
  5
20
100
AcDbEntity
  8
00_FUND_PROJ
  6
ByLayer
370
35
100
AcDbCircle
 10
8417716.92189022712
 20
5761333.18896828406
 40
12.974999999627
  0
CIRCLE
  5
21
100
AcDbEntity
  8
00_FUND_PROJ
  6
ByLayer
370
35
100
AcDbCircle
 10
8417716.92083499953
 20
5761333.18726931606
 40
13.474999999627
  0
CIRCLE
  5
22
100
AcDbEntity
  8
00_FUND_PROJ
  6
ByLayer
370
35
100
AcDbCircle
 10
8417731.16678649746
 20
5761356.12311170064
 40
12.705000000075
  0
CIRCLE
  5
23
100
AcDbEntity
  8
00_FUND_PROJ
  6
ByLayer
370
35
100
AcDbCircle
 10
8417731.16573126987
 20
5761356.12141273264
 40
12.974999999627
  0
CIRCLE
  5
24
100
AcDbEntity
  8
00_FUND_PROJ
  6
ByLayer
370
35
100
AcDbCircle
 10
8417731.16678649746
 20
5761356.12311170064
 40
13.474999999627
  0
POLYLINE
  5
25
100
AcDbEntity
  8
00_FUND_PROJ
  6
CONTINUOUS
370
35
100
AcDb2dPolyline
 66
1
 70
128
  0
VERTEX
  5
26
100
AcDbEntity
  8
00_FUND_PROJ
100
AcDbVertex
100
AcDb2dVertex
 10
8417717.10889849067
 20
5761342.78459043894
  0
VERTEX
  5
27
100
AcDbEntity
  8
00_FUND_PROJ
100
AcDbVertex
100
AcDb2dVertex
 10
8417713.88212662376
 20
5761344.78873405792
  0
VERTEX
  5
28
100
AcDbEntity
  8
00_FUND_PROJ
100
AcDbVertex
100
AcDb2dVertex
 10
8417714.04041071609
 20
5761345.04357939493
  0
VERTEX
  5
29
100
AcDbEntity
  8
00_FUND_PROJ
100
AcDbVertex
100
AcDb2dVertex
 10
8417717.26718258299
 20
5761343.03943577595
  0
SEQEND
  5
2A
100
AcDbEntity
  8
00_FUND_PROJ
  0
POLYLINE
  5
2B
100
AcDbEntity
  8
00_FUND_PROJ
  6
CONTINUOUS
370
35
100
AcDb2dPolyline
 66
1
 70
128
  0
VERTEX
  5
2C
100
AcDbEntity
  8
00_FUND_PROJ
100
AcDbVertex
100
AcDb2dVertex
 10
8417720.61702924408
 20
5761343.78187704366
  0
VERTEX
  5
2D
100
AcDbEntity
  8
00_FUND_PROJ
100
AcDbVertex
100
AcDb2dVertex
 10
8417720.45874515362
 20
5761343.52703170665
  0
SEQEND
  5
2E
100
AcDbEntity
  8
00_FUND_PROJ
  0
POLYLINE
  5
2F
100
AcDbEntity
  8
00_FUND_PROJ
  6
CONTINUOUS
370
35
100
AcDb2dPolyline
 66
1
 70
128
  0
VERTEX
  5
30
100
AcDbEntity
  8
00_FUND_PROJ
100
AcDbVertex
100
AcDb2dVertex
 10
8417720.45874515362
 20
5761343.52703170665
  0
VERTEX
  5
31
100
AcDbEntity
  8
00_FUND_PROJ
100
AcDbVertex
100
AcDb2dVertex
 10
8417718.72880830057
 20
5761344.62437826302
  0
SEQEND
  5
32
100
AcDbEntity
  8
00_FUND_PROJ
  0
POLYLINE
  5
33
100
AcDbEntity
  8
00_FUND_PROJ
  6
CONTINUOUS
370
35
100
AcDb2dPolyline
 66
1
 70
128
  0
VERTEX
  5
34
100
AcDbEntity
  8
00_FUND_PROJ
100
AcDbVertex
100
AcDb2dVertex
 10
8417718.87683528662
 20
5761344.86270914506
  0
VERTEX
  5
35
100
AcDbEntity
  8
00_FUND_PROJ
100
AcDbVertex
100
AcDb2dVertex
 10
8417720.61702924408
 20
5761343.78187704366
  0
SEQEND
  5
36
100
AcDbEntity
  8
00_FUND_PROJ
  0
POLYLINE
  5
37
100
AcDbEntity
  8
00_FUND_PROJ
  6
CONTINUOUS
370
35
100
AcDb2dPolyline
 66
1
 70
128
  0
VERTEX
  5
38
100
AcDbEntity
  8
00_FUND_PROJ
100
AcDbVertex
100
AcDb2dVertex
 10
8417718.72656007297
 20
5761344.62580437586
  0
VERTEX
  5
39
100
AcDbEntity
  8
00_FUND_PROJ
100
AcDbVertex
100
AcDb2dVertex
 10
8417718.87683528662
 20
5761344.86270914506
  0
SEQEND
  5
3A
100
AcDbEntity
  8
00_FUND_PROJ
  0
POLYLINE
  5
3B
100
AcDbEntity
  8
00_FUND_PROJ
  6
CONTINUOUS
370
35
100
AcDb2dPolyline
 66
1
 70
128
  0
VERTEX
  5
3C
100
AcDbEntity
  8
00_FUND_PROJ
100
AcDbVertex
100
AcDb2dVertex
 10
8417717.26718258299
 20
5761343.03943577595
  0
VERTEX
  5
3D
100
AcDbEntity
  8
00_FUND_PROJ
100
AcDbVertex
100
AcDb2dVertex
 10
8417717.10889849067
 20
5761342.78459043894
  0
SEQEND
  5
3E
100
AcDbEntity
  8
00_FUND_PROJ
  0
POLYLINE
  5
3F
100
AcDbEntity
  8
00_FUND_PROJ
  6
CONTINUOUS
370
35
100
AcDb2dPolyline
 66
1
 70
128
  0
VERTEX
  5
40
100
AcDbEntity
  8
00_FUND_PROJ
100
AcDbVertex
100
AcDb2dVertex
 10
8417710.91574866884
 20
5761327.2146650115
  0
VERTEX
  5
41
100
AcDbEntity
  8
00_FUND_PROJ
100
AcDbVertex
100
AcDb2dVertex
 10
8417705.18299764954
 20
5761330.77526887413
  0
VERTEX
  5
42
100
AcDbEntity
  8
00_FUND_PROJ
100
AcDbVertex
100
AcDb2dVertex
 10
8417705.02471355721
 20
5761330.52042353712
  0
VERTEX
  5
43
100
AcDbEntity
  8
00_FUND_PROJ
100
AcDbVertex
100
AcDb2dVertex
 10
8417710.75746457651
 20
5761326.95981967449
  0
SEQEND
  5
44
100
AcDbEntity
  8
00_FUND_PROJ
  0
POLYLINE
  5
45
100
AcDbEntity
  8
00_FUND_PROJ
  6
CONTINUOUS
370
35
100
AcDb2dPolyline
 66
1
 70
128
  0
VERTEX
  5
46
100
AcDbEntity
  8
00_FUND_PROJ
100
AcDbVertex
100
AcDb2dVertex
 10
8417709.48690913431
 20
5761324.91416161135
  0
VERTEX
  5
47
100
AcDbEntity
  8
00_FUND_PROJ
100
AcDbVertex
100
AcDb2dVertex
 10
8417709.6451932285
 20
5761325.16900694929
  0
SEQEND
  5
48
100
AcDbEntity
  8
00_FUND_PROJ
  0
POLYLINE
  5
49
100
AcDbEntity
  8
00_FUND_PROJ
  6
CONTINUOUS
370
35
100
AcDb2dPolyline
 66
1
 70
128
  0
VERTEX
  5
4A
100
AcDbEntity
  8
00_FUND_PROJ
100
AcDbVertex
100
AcDb2dVertex
 10
8417709.6451932285
 20
5761325.16900694929
  0
VERTEX
  5
4B
100
AcDbEntity
  8
00_FUND_PROJ
100
AcDbVertex
100
AcDb2dVertex
 10
8417706.57576636411
 20
5761327.05250892788
  0
SEQEND
  5
4C
100
AcDbEntity
  8
00_FUND_PROJ
  0
POLYLINE
  5
4D
100
AcDbEntity
  8
00_FUND_PROJ
  6
CONTINUOUS
370
35
100
AcDb2dPolyline
 66
1
 70
128
  0
VERTEX
  5
4E
100
AcDbEntity
  8
00_FUND_PROJ
100
AcDbVertex
100
AcDb2dVertex
 10
8417706.4300142657
 20
5761326.81279485766
  0
VERTEX
  5
4F
100
AcDbEntity
  8
00_FUND_PROJ
100
AcDbVertex
100
AcDb2dVertex
 10
8417709.48690913431
 20
5761324.91416161135
  0
SEQEND
  5
50
100
AcDbEntity
  8
00_FUND_PROJ
  0
POLYLINE
  5
51
100
AcDbEntity
  8
00_FUND_PROJ
  6
CONTINUOUS
370
35
100
AcDb2dPolyline
 66
1
 70
128
  0
VERTEX
  5
52
100
AcDbEntity
  8
00_FUND_PROJ
100
AcDbVertex
100
AcDb2dVertex
 10
8417706.57576636411
 20
5761327.05250892788
  0
VERTEX
  5
53
100
AcDbEntity
  8
00_FUND_PROJ
100
AcDbVertex
100
AcDb2dVertex
 10
8417706.4300142657
 20
5761326.81279485766
  0
SEQEND
  5
54
100
AcDbEntity
  8
00_FUND_PROJ
  0
POLYLINE
  5
55
100
AcDbEntity
  8
00_FUND_PROJ
  6
CONTINUOUS
370
35
100
AcDb2dPolyline
 66
1
 70
128
  0
VERTEX
  5
56
100
AcDbEntity
  8
00_FUND_PROJ
100
AcDbVertex
100
AcDb2dVertex
 10
8417710.75746457651
 20
5761326.95981967449
  0
VERTEX
  5
57
100
AcDbEntity
  8
00_FUND_PROJ
100
AcDbVertex
100
AcDb2dVertex
 10
8417710.91574866884
 20
5761327.2146650115
  0
SEQEND
  5
58
100
AcDbEntity
  8
00_FUND_PROJ
  0
POLYLINE
  5
59
100
AcDbEntity
  8
00_FUND_PROJ
  6
CONTINUOUS
370
35
100
AcDb2dPolyline
 66
1
 70
128
  0
VERTEX
  5
5A
100
AcDbEntity
  8
00_FUND_PROJ
100
AcDbVertex
100
AcDb2dVertex
 10
8417725.44050705247
 20
5761337.60983969178
  0
VERTEX
  5
5B
100
AcDbEntity
  8
00_FUND_PROJ
100
AcDbVertex
100
AcDb2dVertex
 10
8417728.66727892123
 20
5761335.60569607187
  0
VERTEX
  5
5C
100
AcDbEntity
  8
00_FUND_PROJ
100
AcDbVertex
100
AcDb2dVertex
 10
8417728.82556301355
 20
5761335.86054140888
  0
VERTEX
  5
5D
100
AcDbEntity
  8
00_FUND_PROJ
100
AcDbVertex
100
AcDb2dVertex
 10
8417725.59879114479
 20
5761337.86468502879
  0
SEQEND
  5
5E
100
AcDbEntity
  8
00_FUND_PROJ
  0
POLYLINE
  5
5F
100
AcDbEntity
  8
00_FUND_PROJ
  6
CONTINUOUS
370
35
100
AcDb2dPolyline
 66
1
 70
128
  0
VERTEX
  5
60
100
AcDbEntity
  8
00_FUND_PROJ
100
AcDbVertex
100
AcDb2dVertex
 10
8417724.77950309031
 20
5761341.19657019898
  0
VERTEX
  5
61
100
AcDbEntity
  8
00_FUND_PROJ
100
AcDbVertex
100
AcDb2dVertex
 10
8417724.62121899985
 20
5761340.94172486197
  0
SEQEND
  5
62
100
AcDbEntity
  8
00_FUND_PROJ
  0
POLYLINE
  5
63
100
AcDbEntity
  8
00_FUND_PROJ
  6
CONTINUOUS
370
35
100
AcDb2dPolyline
 66
1
 70
128
  0
VERTEX
  5
64
100
AcDbEntity
  8
00_FUND_PROJ
100
AcDbVertex
100
AcDb2dVertex
 10
8417724.62121899985
 20
5761340.94172486197
  0
VERTEX
  5
65
100
AcDbEntity
  8
00_FUND_PROJ
100
AcDbVertex
100
AcDb2dVertex
 10
8417726.37167006545
 20
5761339.8774072146
  0
SEQEND
  5
66
100
AcDbEntity
  8
00_FUND_PROJ
  0
POLYLINE
  5
67
100
AcDbEntity
  8
00_FUND_PROJ
  6
CONTINUOUS
370
35
100
AcDb2dPolyline
 66
1
 70
128
  0
VERTEX
  5
68
100
AcDbEntity
  8
00_FUND_PROJ
100
AcDbVertex
100
AcDb2dVertex
 10
8417726.5196970515
 20
5761340.11573809665
  0
VERTEX
  5
69
100
AcDbEntity
  8
00_FUND_PROJ
100
AcDbVertex
100
AcDb2dVertex
 10
8417724.77950309031
 20
5761341.19657019898
  0
SEQEND
  5
6A
100
AcDbEntity
  8
00_FUND_PROJ
  0
POLYLINE
  5
6B
100
AcDbEntity
  8
00_FUND_PROJ
  6
CONTINUOUS
370
35
100
AcDb2dPolyline
 66
1
 70
128
  0
VERTEX
  5
6C
100
AcDbEntity
  8
00_FUND_PROJ
100
AcDbVertex
100
AcDb2dVertex
 10
8417726.37394495308
 20
5761339.87602402642
  0
VERTEX
  5
6D
100
AcDbEntity
  8
00_FUND_PROJ
100
AcDbVertex
100
AcDb2dVertex
 10
8417726.5196970515
 20
5761340.11573809665
  0
SEQEND
  5
6E
100
AcDbEntity
  8
00_FUND_PROJ
  0
POLYLINE
  5
6F
100
AcDbEntity
  8
00_FUND_PROJ
  6
CONTINUOUS
370
35
100
AcDb2dPolyline
 66
1
 70
128
  0
VERTEX
  5
70
100
AcDbEntity
  8
00_FUND_PROJ
100
AcDbVertex
100
AcDb2dVertex
 10
8417725.59879114479
 20
5761337.86468502879
  0
VERTEX
  5
71
100
AcDbEntity
  8
00_FUND_PROJ
100
AcDbVertex
100
AcDb2dVertex
 10
8417725.44050705247
 20
5761337.60983969178
  0
SEQEND
  5
72
100
AcDbEntity
  8
00_FUND_PROJ
  0
POLYLINE
  5
73
100
AcDbEntity
  8
00_FUND_PROJ
  6
CONTINUOUS
370
35
100
AcDb2dPolyline
 66
1
 70
128
  0
VERTEX
  5
74
100
AcDbEntity
  8
00_FUND_PROJ
100
AcDbVertex
100
AcDb2dVertex
 10
8417714.2287380565
 20
5761325.15697180852
  0
VERTEX
  5
75
100
AcDbEntity
  8
00_FUND_PROJ
100
AcDbVertex
100
AcDb2dVertex
 10
8417719.96148907766
 20
5761321.59636794496
  0
VERTEX
  5
76
100
AcDbEntity
  8
00_FUND_PROJ
100
AcDbVertex
100
AcDb2dVertex
 10
8417719.80320498534
 20
5761321.34152260795
  0
VERTEX
  5
77
100
AcDbEntity
  8
00_FUND_PROJ
100
AcDbVertex
100
AcDb2dVertex
 10
8417714.07045396417
 20
5761324.90212647151
  0
SEQEND
  5
78
100
AcDbEntity
  8
00_FUND_PROJ
  0
POLYLINE
  5
79
100
AcDbEntity
  8
00_FUND_PROJ
  6
CONTINUOUS
370
35
100
AcDb2dPolyline
 66
1
 70
128
  0
VERTEX
  5
7A
100
AcDbEntity
  8
00_FUND_PROJ
100
AcDbVertex
100
AcDb2dVertex
 10
8417712.79989852198
 20
5761322.85646840837
  0
VERTEX
  5
7B
100
AcDbEntity
  8
00_FUND_PROJ
100
AcDbVertex
100
AcDb2dVertex
 10
8417712.95818261616
 20
5761323.11131374631
  0
SEQEND
  5
7C
100
AcDbEntity
  8
00_FUND_PROJ
  0
POLYLINE
  5
7D
100
AcDbEntity
  8
00_FUND_PROJ
  6
CONTINUOUS
370
35
100
AcDb2dPolyline
 66
1
 70
128
  0
VERTEX
  5
7E
100
AcDbEntity
  8
00_FUND_PROJ
100
AcDbVertex
100
AcDb2dVertex
 10
8417712.95818261616
 20
5761323.11131374631
  0
VERTEX
  5
7F
100
AcDbEntity
  8
00_FUND_PROJ
100
AcDbVertex
100
AcDb2dVertex
 10
8417716.00706860796
 20
5761321.19473993033
  0
SEQEND
  5
80
100
AcDbEntity
  8
00_FUND_PROJ
  0
POLYLINE
  5
81
100
AcDbEntity
  8
00_FUND_PROJ
  6
CONTINUOUS
370
35
100
AcDb2dPolyline
 66
1
 70
128
  0
VERTEX
  5
82
100
AcDbEntity
  8
00_FUND_PROJ
100
AcDbVertex
100
AcDb2dVertex
 10
8417715.85679339245
 20
5761320.95783516113
  0
VERTEX
  5
83
100
AcDbEntity
  8
00_FUND_PROJ
100
AcDbVertex
100
AcDb2dVertex
 10
8417712.79989852198
 20
5761322.85646840837
  0
SEQEND
  5
84
100
AcDbEntity
  8
00_FUND_PROJ
  0
POLYLINE
  5
85
100
AcDbEntity
  8
00_FUND_PROJ
  6
CONTINUOUS
370
35
100
AcDb2dPolyline
 66
1
 70
128
  0
VERTEX
  5
86
100
AcDbEntity
  8
00_FUND_PROJ
100
AcDbVertex
100
AcDb2dVertex
 10
8417716.00706860796
 20
5761321.19473993033
  0
VERTEX
  5
87
100
AcDbEntity
  8
00_FUND_PROJ
100
AcDbVertex
100
AcDb2dVertex
 10
8417715.85679339245
 20
5761320.95783516113
  0
SEQEND
  5
88
100
AcDbEntity
  8
00_FUND_PROJ
  0
POLYLINE
  5
89
100
AcDbEntity
  8
00_FUND_PROJ
  6
CONTINUOUS
370
35
100
AcDb2dPolyline
 66
1
 70
128
  0
VERTEX
  5
8A
100
AcDbEntity
  8
00_FUND_PROJ
100
AcDbVertex
100
AcDb2dVertex
 10
8417714.07045396417
 20
5761324.90212647151
  0
VERTEX
  5
8B
100
AcDbEntity
  8
00_FUND_PROJ
100
AcDbVertex
100
AcDb2dVertex
 10
8417714.2287380565
 20
5761325.15697180852
  0
SEQEND
  5
8C
100
AcDbEntity
  8
00_FUND_PROJ
  0
POLYLINE
  5
8D
100
AcDbEntity
  8
00_FUND_PROJ
  6
CONTINUOUS
370
35
100
AcDb2dPolyline
 66
1
 70
128
  0
VERTEX
  5
8E
100
AcDbEntity
  8
00_FUND_PROJ
100
AcDbVertex
100
AcDb2dVertex
 10
8417730.97872300632
 20
5761346.52579057775
  0
VERTEX
  5
8F
100
AcDbEntity
  8
00_FUND_PROJ
100
AcDbVertex
100
AcDb2dVertex
 10
8417734.20549487323
 20
5761344.52164695878
  0
VERTEX
  5
90
100
AcDbEntity
  8
00_FUND_PROJ
100
AcDbVertex
100
AcDb2dVertex
 10
8417734.0472107809
 20
5761344.26680162176
  0
VERTEX
  5
91
100
AcDbEntity
  8
00_FUND_PROJ
100
AcDbVertex
100
AcDb2dVertex
 10
8417730.820438914
 20
5761346.27094524074
  0
SEQEND
  5
92
100
AcDbEntity
  8
00_FUND_PROJ
  0
POLYLINE
  5
93
100
AcDbEntity
  8
00_FUND_PROJ
  6
CONTINUOUS
370
35
100
AcDb2dPolyline
 66
1
 70
128
  0
VERTEX
  5
94
100
AcDbEntity
  8
00_FUND_PROJ
100
AcDbVertex
100
AcDb2dVertex
 10
8417727.47059225291
 20
5761345.52850397304
  0
VERTEX
  5
95
100
AcDbEntity
  8
00_FUND_PROJ
100
AcDbVertex
100
AcDb2dVertex
 10
8417727.62887634337
 20
5761345.78334931005
  0
SEQEND
  5
96
100
AcDbEntity
  8
00_FUND_PROJ
  0
POLYLINE
  5
97
100
AcDbEntity
  8
00_FUND_PROJ
  6
CONTINUOUS
370
35
100
AcDb2dPolyline
 66
1
 70
128
  0
VERTEX
  5
98
100
AcDbEntity
  8
00_FUND_PROJ
100
AcDbVertex
100
AcDb2dVertex
 10
8417727.62887634337
 20
5761345.78334931005
  0
VERTEX
  5
99
100
AcDbEntity
  8
00_FUND_PROJ
100
AcDbVertex
100
AcDb2dVertex
 10
8417729.35881319642
 20
5761344.68600275368
  0
SEQEND
  5
9A
100
AcDbEntity
  8
00_FUND_PROJ
  0
POLYLINE
  5
9B
100
AcDbEntity
  8
00_FUND_PROJ
  6
CONTINUOUS
370
35
100
AcDb2dPolyline
 66
1
 70
128
  0
VERTEX
  5
9C
100
AcDbEntity
  8
00_FUND_PROJ
100
AcDbVertex
100
AcDb2dVertex
 10
8417729.21078621037
 20
5761344.44767187163
  0
VERTEX
  5
9D
100
AcDbEntity
  8
00_FUND_PROJ
100
AcDbVertex
100
AcDb2dVertex
 10
8417727.47059225291
 20
5761345.52850397304
  0
SEQEND
  5
9E
100
AcDbEntity
  8
00_FUND_PROJ
  0
POLYLINE
  5
9F
100
AcDbEntity
  8
00_FUND_PROJ
  6
CONTINUOUS
370
35
100
AcDb2dPolyline
 66
1
 70
128
  0
VERTEX
  5
A0
100
AcDbEntity
  8
00_FUND_PROJ
100
AcDbVertex
100
AcDb2dVertex
 10
8417729.36106142402
 20
5761344.68457664084
  0
VERTEX
  5
A1
100
AcDbEntity
  8
00_FUND_PROJ
100
AcDbVertex
100
AcDb2dVertex
 10
8417729.21078621037
 20
5761344.44767187163
  0
SEQEND
  5
A2
100
AcDbEntity
  8
00_FUND_PROJ
  0
POLYLINE
  5
A3
100
AcDbEntity
  8
00_FUND_PROJ
  6
CONTINUOUS
370
35
100
AcDb2dPolyline
 66
1
 70
128
  0
VERTEX
  5
A4
100
AcDbEntity
  8
00_FUND_PROJ
100
AcDbVertex
100
AcDb2dVertex
 10
8417730.820438914
 20
5761346.27094524074
  0
VERTEX
  5
A5
100
AcDbEntity
  8
00_FUND_PROJ
100
AcDbVertex
100
AcDb2dVertex
 10
8417730.97872300632
 20
5761346.52579057775
  0
SEQEND
  5
A6
100
AcDbEntity
  8
00_FUND_PROJ
  0
POLYLINE
  5
A7
100
AcDbEntity
  8
00_FUND_PROJ
  6
CONTINUOUS
370
35
100
AcDb2dPolyline
 66
1
 70
128
  0
VERTEX
  5
A8
100
AcDbEntity
  8
00_FUND_PROJ
100
AcDbVertex
100
AcDb2dVertex
 10
8417737.17187282816
 20
5761362.09571600519
  0
VERTEX
  5
A9
100
AcDbEntity
  8
00_FUND_PROJ
100
AcDbVertex
100
AcDb2dVertex
 10
8417742.90462384745
 20
5761358.53511214256
  0
VERTEX
  5
AA
100
AcDbEntity
  8
00_FUND_PROJ
100
AcDbVertex
100
AcDb2dVertex
 10
8417743.06290793978
 20
5761358.78995747957
  0
VERTEX
  5
AB
100
AcDbEntity
  8
00_FUND_PROJ
100
AcDbVertex
100
AcDb2dVertex
 10
8417737.33015692048
 20
5761362.3505613422
  0
SEQEND
  5
AC
100
AcDbEntity
  8
00_FUND_PROJ
  0
POLYLINE
  5
AD
100
AcDbEntity
  8
00_FUND_PROJ
  6
CONTINUOUS
370
35
100
AcDb2dPolyline
 66
1
 70
128
  0
VERTEX
  5
AE
100
AcDbEntity
  8
00_FUND_PROJ
100
AcDbVertex
100
AcDb2dVertex
 10
8417738.60071236268
 20
5761364.39621940535
  0
VERTEX
  5
AF
100
AcDbEntity
  8
00_FUND_PROJ
100
AcDbVertex
100
AcDb2dVertex
 10
8417738.44242826849
 20
5761364.1413740674
  0
SEQEND
  5
B0
100
AcDbEntity
  8
00_FUND_PROJ
  0
POLYLINE
  5
B1
100
AcDbEntity
  8
00_FUND_PROJ
  6
CONTINUOUS
370
35
100
AcDb2dPolyline
 66
1
 70
128
  0
VERTEX
  5
B2
100
AcDbEntity
  8
00_FUND_PROJ
100
AcDbVertex
100
AcDb2dVertex
 10
8417738.44242826849
 20
5761364.1413740674
  0
VERTEX
  5
B3
100
AcDbEntity
  8
00_FUND_PROJ
100
AcDbVertex
100
AcDb2dVertex
 10
8417741.51185513288
 20
5761362.25787208881
  0
SEQEND
  5
B4
100
AcDbEntity
  8
00_FUND_PROJ
  0
POLYLINE
  5
B5
100
AcDbEntity
  8
00_FUND_PROJ
  6
CONTINUOUS
370
35
100
AcDb2dPolyline
 66
1
 70
128
  0
VERTEX
  5
B6
100
AcDbEntity
  8
00_FUND_PROJ
100
AcDbVertex
100
AcDb2dVertex
 10
8417741.65760723129
 20
5761362.49758615904
  0
VERTEX
  5
B7
100
AcDbEntity
  8
00_FUND_PROJ
100
AcDbVertex
100
AcDb2dVertex
 10
8417738.60071236268
 20
5761364.39621940535
  0
SEQEND
  5
B8
100
AcDbEntity
  8
00_FUND_PROJ
  0
POLYLINE
  5
B9
100
AcDbEntity
  8
00_FUND_PROJ
  6
CONTINUOUS
370
35
100
AcDb2dPolyline
 66
1
 70
128
  0
VERTEX
  5
BA
100
AcDbEntity
  8
00_FUND_PROJ
100
AcDbVertex
100
AcDb2dVertex
 10
8417741.51185513288
 20
5761362.25787208881
  0
VERTEX
  5
BB
100
AcDbEntity
  8
00_FUND_PROJ
100
AcDbVertex
100
AcDb2dVertex
 10
8417741.65760723129
 20
5761362.49758615904
  0
SEQEND
  5
BC
100
AcDbEntity
  8
00_FUND_PROJ
  0
POLYLINE
  5
BD
100
AcDbEntity
  8
00_FUND_PROJ
  6
CONTINUOUS
370
35
100
AcDb2dPolyline
 66
1
 70
128
  0
VERTEX
  5
BE
100
AcDbEntity
  8
00_FUND_PROJ
100
AcDbVertex
100
AcDb2dVertex
 10
8417737.33015692048
 20
5761362.3505613422
  0
VERTEX
  5
BF
100
AcDbEntity
  8
00_FUND_PROJ
100
AcDbVertex
100
AcDb2dVertex
 10
8417737.17187282816
 20
5761362.09571600519
  0
SEQEND
  5
C0
100
AcDbEntity
  8
00_FUND_PROJ
  0
POLYLINE
  5
C1
100
AcDbEntity
  8
00_FUND_PROJ
  6
CONTINUOUS
370
35
100
AcDb2dPolyline
 66
1
 70
128
  0
VERTEX
  5
C2
100
AcDbEntity
  8
00_FUND_PROJ
100
AcDbVertex
100
AcDb2dVertex
 10
8417722.64711444452
 20
5761351.70054132491
  0
VERTEX
  5
C3
100
AcDbEntity
  8
00_FUND_PROJ
100
AcDbVertex
100
AcDb2dVertex
 10
8417719.42034257576
 20
5761353.70468494482
  0
VERTEX
  5
C4
100
AcDbEntity
  8
00_FUND_PROJ
100
AcDbVertex
100
AcDb2dVertex
 10
8417719.26205848344
 20
5761353.44983960781
  0
VERTEX
  5
C5
100
AcDbEntity
  8
00_FUND_PROJ
100
AcDbVertex
100
AcDb2dVertex
 10
8417722.4888303522
 20
5761351.4456959879
  0
SEQEND
  5
C6
100
AcDbEntity
  8
00_FUND_PROJ
  0
POLYLINE
  5
C7
100
AcDbEntity
  8
00_FUND_PROJ
  6
CONTINUOUS
370
35
100
AcDb2dPolyline
 66
1
 70
128
  0
VERTEX
  5
C8
100
AcDbEntity
  8
00_FUND_PROJ
100
AcDbVertex
100
AcDb2dVertex
 10
8417723.30811840668
 20
5761348.11381081771
  0
VERTEX
  5
C9
100
AcDbEntity
  8
00_FUND_PROJ
100
AcDbVertex
100
AcDb2dVertex
 10
8417723.46640249714
 20
5761348.36865615472
  0
SEQEND
  5
CA
100
AcDbEntity
  8
00_FUND_PROJ
  0
POLYLINE
  5
CB
100
AcDbEntity
  8
00_FUND_PROJ
  6
CONTINUOUS
370
35
100
AcDb2dPolyline
 66
1
 70
128
  0
VERTEX
  5
CC
100
AcDbEntity
  8
00_FUND_PROJ
100
AcDbVertex
100
AcDb2dVertex
 10
8417723.46640249714
 20
5761348.36865615472
  0
VERTEX
  5
CD
100
AcDbEntity
  8
00_FUND_PROJ
100
AcDbVertex
100
AcDb2dVertex
 10
8417721.71595143154
 20
5761349.43297380209
  0
SEQEND
  5
CE
100
AcDbEntity
  8
00_FUND_PROJ
  0
POLYLINE
  5
CF
100
AcDbEntity
  8
00_FUND_PROJ
  6
CONTINUOUS
370
35
100
AcDb2dPolyline
 66
1
 70
128
  0
VERTEX
  5
D0
100
AcDbEntity
  8
00_FUND_PROJ
100
AcDbVertex
100
AcDb2dVertex
 10
8417721.5679244455
 20
5761349.19464292005
  0
VERTEX
  5
D1
100
AcDbEntity
  8
00_FUND_PROJ
100
AcDbVertex
100
AcDb2dVertex
 10
8417723.30811840668
 20
5761348.11381081771
  0
SEQEND
  5
D2
100
AcDbEntity
  8
00_FUND_PROJ
  0
POLYLINE
  5
D3
100
AcDbEntity
  8
00_FUND_PROJ
  6
CONTINUOUS
370
35
100
AcDb2dPolyline
 66
1
 70
128
  0
VERTEX
  5
D4
100
AcDbEntity
  8
00_FUND_PROJ
100
AcDbVertex
100
AcDb2dVertex
 10
8417721.71367654391
 20
5761349.43435699027
  0
VERTEX
  5
D5
100
AcDbEntity
  8
00_FUND_PROJ
100
AcDbVertex
100
AcDb2dVertex
 10
8417721.5679244455
 20
5761349.19464292005
  0
SEQEND
  5
D6
100
AcDbEntity
  8
00_FUND_PROJ
  0
POLYLINE
  5
D7
100
AcDbEntity
  8
00_FUND_PROJ
  6
CONTINUOUS
370
35
100
AcDb2dPolyline
 66
1
 70
128
  0
VERTEX
  5
D8
100
AcDbEntity
  8
00_FUND_PROJ
100
AcDbVertex
100
AcDb2dVertex
 10
8417722.4888303522
 20
5761351.4456959879
  0
VERTEX
  5
D9
100
AcDbEntity
  8
00_FUND_PROJ
100
AcDbVertex
100
AcDb2dVertex
 10
8417722.64711444452
 20
5761351.70054132491
  0
SEQEND
  5
DA
100
AcDbEntity
  8
00_FUND_PROJ
  0
POLYLINE
  5
DB
100
AcDbEntity
  8
00_FUND_PROJ
  6
CONTINUOUS
370
35
100
AcDb2dPolyline
 66
1
 70
128
  0
VERTEX
  5
DC
100
AcDbEntity
  8
00_FUND_PROJ
100
AcDbVertex
100
AcDb2dVertex
 10
8417733.8588834405
 20
5761364.15340920817
  0
VERTEX
  5
DD
100
AcDbEntity
  8
00_FUND_PROJ
100
AcDbVertex
100
AcDb2dVertex
 10
8417728.12613241933
 20
5761367.71401307173
  0
VERTEX
  5
DE
100
AcDbEntity
  8
00_FUND_PROJ
100
AcDbVertex
100
AcDb2dVertex
 10
8417728.28441651166
 20
5761367.96885840874
  0
VERTEX
  5
DF
100
AcDbEntity
  8
00_FUND_PROJ
100
AcDbVertex
100
AcDb2dVertex
 10
8417734.01716753282
 20
5761364.40825454518
  0
SEQEND
  5
E0
100
AcDbEntity
  8
00_FUND_PROJ
  0
POLYLINE
  5
E1
100
AcDbEntity
  8
00_FUND_PROJ
  6
CONTINUOUS
370
35
100
AcDb2dPolyline
 66
1
 70
128
  0
VERTEX
  5
E2
100
AcDbEntity
  8
00_FUND_PROJ
100
AcDbVertex
100
AcDb2dVertex
 10
8417735.28772297502
 20
5761366.45391260833
  0
VERTEX
  5
E3
100
AcDbEntity
  8
00_FUND_PROJ
100
AcDbVertex
100
AcDb2dVertex
 10
8417735.12943888083
 20
5761366.19906727038
  0
SEQEND
  5
E4
100
AcDbEntity
  8
00_FUND_PROJ
  0
POLYLINE
  5
E5
100
AcDbEntity
  8
00_FUND_PROJ
  6
CONTINUOUS
370
35
100
AcDb2dPolyline
 66
1
 70
128
  0
VERTEX
  5
E6
100
AcDbEntity
  8
00_FUND_PROJ
100
AcDbVertex
100
AcDb2dVertex
 10
8417735.12943888083
 20
5761366.19906727038
  0
VERTEX
  5
E7
100
AcDbEntity
  8
00_FUND_PROJ
100
AcDbVertex
100
AcDb2dVertex
 10
8417732.08055288903
 20
5761368.11564108636
  0
SEQEND
  5
E8
100
AcDbEntity
  8
00_FUND_PROJ
  0
POLYLINE
  5
E9
100
AcDbEntity
  8
00_FUND_PROJ
  6
CONTINUOUS
370
35
100
AcDb2dPolyline
 66
1
 70
128
  0
VERTEX
  5
EA
100
AcDbEntity
  8
00_FUND_PROJ
100
AcDbVertex
100
AcDb2dVertex
 10
8417732.23082810454
 20
5761368.35254585557
  0
VERTEX
  5
EB
100
AcDbEntity
  8
00_FUND_PROJ
100
AcDbVertex
100
AcDb2dVertex
 10
8417735.28772297502
 20
5761366.45391260833
  0
SEQEND
  5
EC
100
AcDbEntity
  8
00_FUND_PROJ
  0
POLYLINE
  5
ED
100
AcDbEntity
  8
00_FUND_PROJ
  6
CONTINUOUS
370
35
100
AcDb2dPolyline
 66
1
 70
128
  0
VERTEX
  5
EE
100
AcDbEntity
  8
00_FUND_PROJ
100
AcDbVertex
100
AcDb2dVertex
 10
8417732.08055288903
 20
5761368.11564108636
  0
VERTEX
  5
EF
100
AcDbEntity
  8
00_FUND_PROJ
100
AcDbVertex
100
AcDb2dVertex
 10
8417732.23082810454
 20
5761368.35254585557
  0
SEQEND
  5
F0
100
AcDbEntity
  8
00_FUND_PROJ
  0
POLYLINE
  5
F1
100
AcDbEntity
  8
00_FUND_PROJ
  6
CONTINUOUS
370
35
100
AcDb2dPolyline
 66
1
 70
128
  0
VERTEX
  5
F2
100
AcDbEntity
  8
00_FUND_PROJ
100
AcDbVertex
100
AcDb2dVertex
 10
8417734.01716753282
 20
5761364.40825454518
  0
VERTEX
  5
F3
100
AcDbEntity
  8
00_FUND_PROJ
100
AcDbVertex
100
AcDb2dVertex
 10
8417733.8588834405
 20
5761364.15340920817
  0
SEQEND
  5
F4
100
AcDbEntity
  8
00_FUND_PROJ
  0
POLYLINE
  5
F5
100
AcDbEntity
  8
00_FUND_PROJ
  6
CONTINUOUS
370
35
100
AcDb2dPolyline
 66
1
 70
129
  0
VERTEX
  5
F6
100
AcDbEntity
  8
00_FUND_PROJ
100
AcDbVertex
100
AcDb2dVertex
 10
8417709.21605324559
 20
5761323.62517319992
  0
VERTEX
  5
F7
100
AcDbEntity
  8
00_FUND_PROJ
100
AcDbVertex
100
AcDb2dVertex
 10
8417721.84870667197
 20
5761343.96437958535
  0
VERTEX
  5
F8
100
AcDbEntity
  8
00_FUND_PROJ
100
AcDbVertex
100
AcDb2dVertex
 10
8417722.10355200805
 20
5761343.80609549303
  0
VERTEX
  5
F9
100
AcDbEntity
  8
00_FUND_PROJ
100
AcDbVertex
100
AcDb2dVertex
 10
8417709.47089858167
 20
5761323.4668891076
  0
SEQEND
  5
FA
100
AcDbEntity
  8
00_FUND_PROJ
  0
POLYLINE
  5
FB
100
AcDbEntity
  8
00_FUND_PROJ
  6
CONTINUOUS
370
35
100
AcDb2dPolyline
 66
1
 70
129
  0
VERTEX
  5
FC
100
AcDbEntity
  8
00_FUND_PROJ
100
AcDbVertex
100
AcDb2dVertex
 10
8417711.50966128334
 20
5761322.20061636716
  0
VERTEX
  5
FD
100
AcDbEntity
  8
00_FUND_PROJ
100
AcDbVertex
100
AcDb2dVertex
 10
8417724.14231470972
 20
5761342.53982275259
  0
VERTEX
  5
FE
100
AcDbEntity
  8
00_FUND_PROJ
100
AcDbVertex
100
AcDb2dVertex
 10
8417724.39716004766
 20
5761342.38153866027
  0
VERTEX
  5
FF
100
AcDbEntity
  8
00_FUND_PROJ
100
AcDbVertex
100
AcDb2dVertex
 10
8417711.76450662129
 20
5761322.04233227484
  0
SEQEND
  5
100
100
AcDbEntity
  8
00_FUND_PROJ
  0
POLYLINE
  5
101
100
AcDbEntity
  8
00_FUND_PROJ
  6
CONTINUOUS
370
35
100
AcDb2dPolyline
 66
1
 70
129
  0
VERTEX
  5
102
100
AcDbEntity
  8
00_FUND_PROJ
100
AcDbVertex
100
AcDb2dVertex
 10
8417718.51021943055
 20
5761339.44214430544
  0
VERTEX
  5
103
100
AcDbEntity
  8
00_FUND_PROJ
100
AcDbVertex
100
AcDb2dVertex
 10
8417718.35193533637
 20
5761339.1872989675
  0
VERTEX
  5
104
100
AcDbEntity
  8
00_FUND_PROJ
100
AcDbVertex
100
AcDb2dVertex
 10
8417711.10771513917
 20
5761343.68667428196
  0
VERTEX
  5
105
100
AcDbEntity
  8
00_FUND_PROJ
100
AcDbVertex
100
AcDb2dVertex
 10
8417711.26599922962
 20
5761343.9415196199
  0
SEQEND
  5
106
100
AcDbEntity
  8
00_FUND_PROJ
  0
POLYLINE
  5
107
100
AcDbEntity
  8
00_FUND_PROJ
  6
CONTINUOUS
370
35
100
AcDb2dPolyline
 66
1
 70
129
  0
VERTEX
  5
108
100
AcDbEntity
  8
00_FUND_PROJ
100
AcDbVertex
100
AcDb2dVertex
 10
8417717.24394668825
 20
5761337.4033816047
  0
VERTEX
  5
109
100
AcDbEntity
  8
00_FUND_PROJ
100
AcDbVertex
100
AcDb2dVertex
 10
8417717.08566259593
 20
5761337.14853626769
  0
VERTEX
  5
10A
100
AcDbEntity
  8
00_FUND_PROJ
100
AcDbVertex
100
AcDb2dVertex
 10
8417708.95031277835
 20
5761342.20139097609
  0
VERTEX
  5
10B
100
AcDbEntity
  8
00_FUND_PROJ
100
AcDbVertex
100
AcDb2dVertex
 10
8417709.10859687068
 20
5761342.4562363131
  0
SEQEND
  5
10C
100
AcDbEntity
  8
00_FUND_PROJ
  0
POLYLINE
  5
10D
100
AcDbEntity
  8
00_FUND_PROJ
  6
CONTINUOUS
370
35
100
AcDb2dPolyline
 66
1
 70
129
  0
VERTEX
  5
10E
100
AcDbEntity
  8
00_FUND_PROJ
100
AcDbVertex
100
AcDb2dVertex
 10
8417715.97767394967
 20
5761335.36461890489
  0
VERTEX
  5
10F
100
AcDbEntity
  8
00_FUND_PROJ
100
AcDbVertex
100
AcDb2dVertex
 10
8417715.81938985549
 20
5761335.10977356695
  0
VERTEX
  5
110
100
AcDbEntity
  8
00_FUND_PROJ
100
AcDbVertex
100
AcDb2dVertex
 10
8417707.24648602493
 20
5761340.43439247832
  0
VERTEX
  5
111
100
AcDbEntity
  8
00_FUND_PROJ
100
AcDbVertex
100
AcDb2dVertex
 10
8417707.40477011725
 20
5761340.68923781626
  0
SEQEND
  5
112
100
AcDbEntity
  8
00_FUND_PROJ
  0
POLYLINE
  5
113
100
AcDbEntity
  8
00_FUND_PROJ
  6
CONTINUOUS
370
35
100
AcDb2dPolyline
 66
1
 70
129
  0
VERTEX
  5
114
100
AcDbEntity
  8
00_FUND_PROJ
100
AcDbVertex
100
AcDb2dVertex
 10
8417717.42453103326
 20
5761333.30645113159
  0
VERTEX
  5
115
100
AcDbEntity
  8
00_FUND_PROJ
100
AcDbVertex
100
AcDb2dVertex
 10
8417717.03937307559
 20
5761332.68632747699
  0
VERTEX
  5
116
100
AcDbEntity
  8
00_FUND_PROJ
100
AcDbVertex
100
AcDb2dVertex
 10
8417716.41924942099
 20
5761333.07148543559
  0
VERTEX
  5
117
100
AcDbEntity
  8
00_FUND_PROJ
100
AcDbVertex
100
AcDb2dVertex
 10
8417716.80440737866
 20
5761333.69160909019
  0
SEQEND
  5
118
100
AcDbEntity
  8
00_FUND_PROJ
  0
POLYLINE
  5
119
100
AcDbEntity
  8
00_FUND_PROJ
  6
CONTINUOUS
370
35
100
AcDb2dPolyline
 66
1
 70
129
  0
VERTEX
  5
11A
100
AcDbEntity
  8
00_FUND_PROJ
100
AcDbVertex
100
AcDb2dVertex
 10
8417707.24648602493
 20
5761340.43439247832
  0
VERTEX
  5
11B
100
AcDbEntity
  8
00_FUND_PROJ
100
AcDbVertex
100
AcDb2dVertex
 10
8417707.40477011725
 20
5761340.68923781626
  0
VERTEX
  5
11C
100
AcDbEntity
  8
00_FUND_PROJ
100
AcDbVertex
100
AcDb2dVertex
 10
8417715.97767394967
 20
5761335.36461890489
  0
VERTEX
  5
11D
100
AcDbEntity
  8
00_FUND_PROJ
100
AcDbVertex
100
AcDb2dVertex
 10
8417715.81938985549
 20
5761335.10977356695
  0
SEQEND
  5
11E
100
AcDbEntity
  8
00_FUND_PROJ
  0
POLYLINE
  5
11F
100
AcDbEntity
  8
00_FUND_PROJ
  6
CONTINUOUS
370
35
100
AcDb2dPolyline
 66
1
 70
129
  0
VERTEX
  5
120
100
AcDbEntity
  8
00_FUND_PROJ
100
AcDbVertex
100
AcDb2dVertex
 10
8417705.97810282931
 20
5761338.39223184157
  0
VERTEX
  5
121
100
AcDbEntity
  8
00_FUND_PROJ
100
AcDbVertex
100
AcDb2dVertex
 10
8417706.13638692163
 20
5761338.64707717858
  0
VERTEX
  5
122
100
AcDbEntity
  8
00_FUND_PROJ
100
AcDbVertex
100
AcDb2dVertex
 10
8417714.70929075405
 20
5761333.32245826721
  0
VERTEX
  5
123
100
AcDbEntity
  8
00_FUND_PROJ
100
AcDbVertex
100
AcDb2dVertex
 10
8417714.55100666173
 20
5761333.0676129302
  0
SEQEND
  5
124
100
AcDbEntity
  8
00_FUND_PROJ
  0
POLYLINE
  5
125
100
AcDbEntity
  8
00_FUND_PROJ
  6
CONTINUOUS
370
35
100
AcDb2dPolyline
 66
1
 70
129
  0
VERTEX
  5
126
100
AcDbEntity
  8
00_FUND_PROJ
100
AcDbVertex
100
AcDb2dVertex
 10
8417714.70929075405
 20
5761333.32245826721
  0
VERTEX
  5
127
100
AcDbEntity
  8
00_FUND_PROJ
100
AcDbVertex
100
AcDb2dVertex
 10
8417714.55100666173
 20
5761333.0676129302
  0
VERTEX
  5
128
100
AcDbEntity
  8
00_FUND_PROJ
100
AcDbVertex
100
AcDb2dVertex
 10
8417705.97810282931
 20
5761338.39223184157
  0
VERTEX
  5
129
100
AcDbEntity
  8
00_FUND_PROJ
100
AcDbVertex
100
AcDb2dVertex
 10
8417706.13638692163
 20
5761338.64707717858
  0
SEQEND
  5
12A
100
AcDbEntity
  8
00_FUND_PROJ
  0
POLYLINE
  5
12B
100
AcDbEntity
  8
00_FUND_PROJ
  6
CONTINUOUS
370
35
100
AcDb2dPolyline
 66
1
 70
129
  0
VERTEX
  5
12C
100
AcDbEntity
  8
00_FUND_PROJ
100
AcDbVertex
100
AcDb2dVertex
 10
8417718.1325215809
 20
5761344.99594400451
  0
VERTEX
  5
12D
100
AcDbEntity
  8
00_FUND_PROJ
100
AcDbVertex
100
AcDb2dVertex
 10
8417719.17912793532
 20
5761340.51812386978
  0
VERTEX
  5
12E
100
AcDbEntity
  8
00_FUND_PROJ
100
AcDbVertex
100
AcDb2dVertex
 10
8417718.88700131513
 20
5761340.4498447571
  0
VERTEX
  5
12F
100
AcDbEntity
  8
00_FUND_PROJ
100
AcDbVertex
100
AcDb2dVertex
 10
8417717.84039495885
 20
5761344.92766489368
  0
SEQEND
  5
130
100
AcDbEntity
  8
00_FUND_PROJ
  0
POLYLINE
  5
131
100
AcDbEntity
  8
00_FUND_PROJ
  6
CONTINUOUS
370
35
100
AcDb2dPolyline
 66
1
 70
129
  0
VERTEX
  5
132
100
AcDbEntity
  8
00_FUND_PROJ
100
AcDbVertex
100
AcDb2dVertex
 10
8417704.77424097992
 20
5761333.4894628441
  0
VERTEX
  5
133
100
AcDbEntity
  8
00_FUND_PROJ
100
AcDbVertex
100
AcDb2dVertex
 10
8417704.93252507411
 20
5761333.74430818204
  0
VERTEX
  5
134
100
AcDbEntity
  8
00_FUND_PROJ
100
AcDbVertex
100
AcDb2dVertex
 10
8417712.17674527317
 20
5761329.24493286759
  0
VERTEX
  5
135
100
AcDbEntity
  8
00_FUND_PROJ
100
AcDbVertex
100
AcDb2dVertex
 10
8417712.01846118085
 20
5761328.99008752964
  0
SEQEND
  5
136
100
AcDbEntity
  8
00_FUND_PROJ
  0
POLYLINE
  5
137
100
AcDbEntity
  8
00_FUND_PROJ
  6
CONTINUOUS
370
35
100
AcDb2dPolyline
 66
1
 70
129
  0
VERTEX
  5
138
100
AcDbEntity
  8
00_FUND_PROJ
100
AcDbVertex
100
AcDb2dVertex
 10
8417705.14938410372
 20
5761336.08170493785
  0
VERTEX
  5
139
100
AcDbEntity
  8
00_FUND_PROJ
100
AcDbVertex
100
AcDb2dVertex
 10
8417705.30766819604
 20
5761336.3365502758
  0
VERTEX
  5
13A
100
AcDbEntity
  8
00_FUND_PROJ
100
AcDbVertex
100
AcDb2dVertex
 10
8417713.44301801361
 20
5761331.2836955674
  0
VERTEX
  5
13B
100
AcDbEntity
  8
00_FUND_PROJ
100
AcDbVertex
100
AcDb2dVertex
 10
8417713.28473392129
 20
5761331.02885022946
  0
SEQEND
  5
13C
100
AcDbEntity
  8
00_FUND_PROJ
  0
POLYLINE
  5
13D
100
AcDbEntity
  8
00_FUND_PROJ
  6
CONTINUOUS
370
35
100
AcDb2dPolyline
 66
1
 70
129
  0
VERTEX
  5
13E
100
AcDbEntity
  8
00_FUND_PROJ
100
AcDbVertex
100
AcDb2dVertex
 10
8417729.06742901541
 20
5761332.88507578801
  0
VERTEX
  5
13F
100
AcDbEntity
  8
00_FUND_PROJ
100
AcDbVertex
100
AcDb2dVertex
 10
8417728.90914492495
 20
5761332.63023045007
  0
VERTEX
  5
140
100
AcDbEntity
  8
00_FUND_PROJ
100
AcDbVertex
100
AcDb2dVertex
 10
8417721.66492472403
 20
5761337.12960576452
  0
VERTEX
  5
141
100
AcDbEntity
  8
00_FUND_PROJ
100
AcDbVertex
100
AcDb2dVertex
 10
8417721.82320881821
 20
5761337.38445110247
  0
SEQEND
  5
142
100
AcDbEntity
  8
00_FUND_PROJ
  0
POLYLINE
  5
143
100
AcDbEntity
  8
00_FUND_PROJ
  6
CONTINUOUS
370
35
100
AcDb2dPolyline
 66
1
 70
129
  0
VERTEX
  5
144
100
AcDbEntity
  8
00_FUND_PROJ
100
AcDbVertex
100
AcDb2dVertex
 10
8417728.69228589348
 20
5761330.29283369333
  0
VERTEX
  5
145
100
AcDbEntity
  8
00_FUND_PROJ
100
AcDbVertex
100
AcDb2dVertex
 10
8417728.53400180116
 20
5761330.03798835631
  0
VERTEX
  5
146
100
AcDbEntity
  8
00_FUND_PROJ
100
AcDbVertex
100
AcDb2dVertex
 10
8417720.39865198359
 20
5761335.09084306471
  0
VERTEX
  5
147
100
AcDbEntity
  8
00_FUND_PROJ
100
AcDbVertex
100
AcDb2dVertex
 10
8417720.55693607591
 20
5761335.34568840172
  0
SEQEND
  5
148
100
AcDbEntity
  8
00_FUND_PROJ
  0
POLYLINE
  5
149
100
AcDbEntity
  8
00_FUND_PROJ
  6
CONTINUOUS
370
35
100
AcDb2dPolyline
 66
1
 70
129
  0
VERTEX
  5
14A
100
AcDbEntity
  8
00_FUND_PROJ
100
AcDbVertex
100
AcDb2dVertex
 10
8417727.86356716789
 20
5761327.98230678961
  0
VERTEX
  5
14B
100
AcDbEntity
  8
00_FUND_PROJ
100
AcDbVertex
100
AcDb2dVertex
 10
8417727.70528307557
 20
5761327.72746145166
  0
VERTEX
  5
14C
100
AcDbEntity
  8
00_FUND_PROJ
100
AcDbVertex
100
AcDb2dVertex
 10
8417719.13237924315
 20
5761333.05208036397
  0
VERTEX
  5
14D
100
AcDbEntity
  8
00_FUND_PROJ
100
AcDbVertex
100
AcDb2dVertex
 10
8417719.29066333734
 20
5761333.30692570191
  0
SEQEND
  5
14E
100
AcDbEntity
  8
00_FUND_PROJ
  0
POLYLINE
  5
14F
100
AcDbEntity
  8
00_FUND_PROJ
  6
CONTINUOUS
370
35
100
AcDb2dPolyline
 66
1
 70
129
  0
VERTEX
  5
150
100
AcDbEntity
  8
00_FUND_PROJ
100
AcDbVertex
100
AcDb2dVertex
 10
8417719.13237924315
 20
5761333.05208036397
  0
VERTEX
  5
151
100
AcDbEntity
  8
00_FUND_PROJ
100
AcDbVertex
100
AcDb2dVertex
 10
8417719.29066333734
 20
5761333.30692570191
  0
VERTEX
  5
152
100
AcDbEntity
  8
00_FUND_PROJ
100
AcDbVertex
100
AcDb2dVertex
 10
8417727.86356716789
 20
5761327.98230678961
  0
VERTEX
  5
153
100
AcDbEntity
  8
00_FUND_PROJ
100
AcDbVertex
100
AcDb2dVertex
 10
8417727.70528307557
 20
5761327.72746145166
  0
SEQEND
  5
154
100
AcDbEntity
  8
00_FUND_PROJ
  0
POLYLINE
  5
155
100
AcDbEntity
  8
00_FUND_PROJ
  6
CONTINUOUS
370
35
100
AcDb2dPolyline
 66
1
 70
129
  0
VERTEX
  5
156
100
AcDbEntity
  8
00_FUND_PROJ
100
AcDbVertex
100
AcDb2dVertex
 10
8417717.86399604939
 20
5761331.00991972722
  0
VERTEX
  5
157
100
AcDbEntity
  8
00_FUND_PROJ
100
AcDbVertex
100
AcDb2dVertex
 10
8417718.02228014171
 20
5761331.26476506423
  0
VERTEX
  5
158
100
AcDbEntity
  8
00_FUND_PROJ
100
AcDbVertex
100
AcDb2dVertex
 10
8417726.59518397413
 20
5761325.94014615193
  0
VERTEX
  5
159
100
AcDbEntity
  8
00_FUND_PROJ
100
AcDbVertex
100
AcDb2dVertex
 10
8417726.43689988181
 20
5761325.68530081492
  0
SEQEND
  5
15A
100
AcDbEntity
  8
00_FUND_PROJ
  0
POLYLINE
  5
15B
100
AcDbEntity
  8
00_FUND_PROJ
  6
CONTINUOUS
370
35
100
AcDb2dPolyline
 66
1
 70
129
  0
VERTEX
  5
15C
100
AcDbEntity
  8
00_FUND_PROJ
100
AcDbVertex
100
AcDb2dVertex
 10
8417726.59518397413
 20
5761325.94014615193
  0
VERTEX
  5
15D
100
AcDbEntity
  8
00_FUND_PROJ
100
AcDbVertex
100
AcDb2dVertex
 10
8417726.43689988181
 20
5761325.68530081492
  0
VERTEX
  5
15E
100
AcDbEntity
  8
00_FUND_PROJ
100
AcDbVertex
100
AcDb2dVertex
 10
8417717.86399604939
 20
5761331.00991972722
  0
VERTEX
  5
15F
100
AcDbEntity
  8
00_FUND_PROJ
100
AcDbVertex
100
AcDb2dVertex
 10
8417718.02228014171
 20
5761331.26476506423
  0
SEQEND
  5
160
100
AcDbEntity
  8
00_FUND_PROJ
  0
POLYLINE
  5
161
100
AcDbEntity
  8
00_FUND_PROJ
  6
CONTINUOUS
370
35
100
AcDb2dPolyline
 66
1
 70
129
  0
VERTEX
  5
162
100
AcDbEntity
  8
00_FUND_PROJ
100
AcDbVertex
100
AcDb2dVertex
 10
8417715.33145056851
 20
5761326.93239432666
  0
VERTEX
  5
163
100
AcDbEntity
  8
00_FUND_PROJ
100
AcDbVertex
100
AcDb2dVertex
 10
8417715.48973466083
 20
5761327.18723966461
  0
VERTEX
  5
164
100
AcDbEntity
  8
00_FUND_PROJ
100
AcDbVertex
100
AcDb2dVertex
 10
8417722.7339548599
 20
5761322.68786435016
  0
VERTEX
  5
165
100
AcDbEntity
  8
00_FUND_PROJ
100
AcDbVertex
100
AcDb2dVertex
 10
8417722.57567076571
 20
5761322.43301901221
  0
SEQEND
  5
166
100
AcDbEntity
  8
00_FUND_PROJ
  0
POLYLINE
  5
167
100
AcDbEntity
  8
00_FUND_PROJ
  6
CONTINUOUS
370
35
100
AcDb2dPolyline
 66
1
 70
129
  0
VERTEX
  5
168
100
AcDbEntity
  8
00_FUND_PROJ
100
AcDbVertex
100
AcDb2dVertex
 10
8417716.59772330895
 20
5761328.97115702648
  0
VERTEX
  5
169
100
AcDbEntity
  8
00_FUND_PROJ
100
AcDbVertex
100
AcDb2dVertex
 10
8417716.75600740127
 20
5761329.22600236442
  0
VERTEX
  5
16A
100
AcDbEntity
  8
00_FUND_PROJ
100
AcDbVertex
100
AcDb2dVertex
 10
8417724.89135721885
 20
5761324.17314765602
  0
VERTEX
  5
16B
100
AcDbEntity
  8
00_FUND_PROJ
100
AcDbVertex
100
AcDb2dVertex
 10
8417724.73307312652
 20
5761323.91830231808
  0
SEQEND
  5
16C
100
AcDbEntity
  8
00_FUND_PROJ
  0
POLYLINE
  5
16D
100
AcDbEntity
  8
00_FUND_PROJ
  6
CONTINUOUS
370
35
100
AcDb2dPolyline
 66
1
 70
129
  0
VERTEX
  5
16E
100
AcDbEntity
  8
00_FUND_PROJ
100
AcDbVertex
100
AcDb2dVertex
 10
8417727.03732311353
 20
5761339.215465324
  0
VERTEX
  5
16F
100
AcDbEntity
  8
00_FUND_PROJ
100
AcDbVertex
100
AcDb2dVertex
 10
8417722.55950297602
 20
5761338.16885896958
  0
VERTEX
  5
170
100
AcDbEntity
  8
00_FUND_PROJ
100
AcDbVertex
100
AcDb2dVertex
 10
8417722.49122386426
 20
5761338.46098559164
  0
VERTEX
  5
171
100
AcDbEntity
  8
00_FUND_PROJ
100
AcDbVertex
100
AcDb2dVertex
 10
8417726.96904400177
 20
5761339.50759194605
  0
SEQEND
  5
172
100
AcDbEntity
  8
00_FUND_PROJ
  0
POLYLINE
  5
173
100
AcDbEntity
  8
00_FUND_PROJ
  6
CONTINUOUS
370
35
100
AcDb2dPolyline
 66
1
 70
129
  0
VERTEX
  5
174
100
AcDbEntity
  8
00_FUND_PROJ
100
AcDbVertex
100
AcDb2dVertex
 10
8417738.8715682514
 20
5761365.68520781677
  0
VERTEX
  5
175
100
AcDbEntity
  8
00_FUND_PROJ
100
AcDbVertex
100
AcDb2dVertex
 10
8417726.23891482502
 20
5761345.34600143135
  0
VERTEX
  5
176
100
AcDbEntity
  8
00_FUND_PROJ
100
AcDbVertex
100
AcDb2dVertex
 10
8417725.98406948894
 20
5761345.50428552367
  0
VERTEX
  5
177
100
AcDbEntity
  8
00_FUND_PROJ
100
AcDbVertex
100
AcDb2dVertex
 10
8417738.61672291532
 20
5761365.84349190909
  0
SEQEND
  5
178
100
AcDbEntity
  8
00_FUND_PROJ
  0
POLYLINE
  5
179
100
AcDbEntity
  8
00_FUND_PROJ
  6
CONTINUOUS
370
35
100
AcDb2dPolyline
 66
1
 70
129
  0
VERTEX
  5
17A
100
AcDbEntity
  8
00_FUND_PROJ
100
AcDbVertex
100
AcDb2dVertex
 10
8417736.57796021365
 20
5761367.10976464953
  0
VERTEX
  5
17B
100
AcDbEntity
  8
00_FUND_PROJ
100
AcDbVertex
100
AcDb2dVertex
 10
8417723.94530678727
 20
5761346.77055826411
  0
VERTEX
  5
17C
100
AcDbEntity
  8
00_FUND_PROJ
100
AcDbVertex
100
AcDb2dVertex
 10
8417723.69046144932
 20
5761346.92884235643
  0
VERTEX
  5
17D
100
AcDbEntity
  8
00_FUND_PROJ
100
AcDbVertex
100
AcDb2dVertex
 10
8417736.3231148757
 20
5761367.26804874185
  0
SEQEND
  5
17E
100
AcDbEntity
  8
00_FUND_PROJ
  0
POLYLINE
  5
17F
100
AcDbEntity
  8
00_FUND_PROJ
  6
CONTINUOUS
370
35
100
AcDb2dPolyline
 66
1
 70
129
  0
VERTEX
  5
180
100
AcDbEntity
  8
00_FUND_PROJ
100
AcDbVertex
100
AcDb2dVertex
 10
8417729.57740206644
 20
5761349.86823671125
  0
VERTEX
  5
181
100
AcDbEntity
  8
00_FUND_PROJ
100
AcDbVertex
100
AcDb2dVertex
 10
8417729.73568616062
 20
5761350.12308204919
  0
VERTEX
  5
182
100
AcDbEntity
  8
00_FUND_PROJ
100
AcDbVertex
100
AcDb2dVertex
 10
8417736.97990635782
 20
5761345.62370673474
  0
VERTEX
  5
183
100
AcDbEntity
  8
00_FUND_PROJ
100
AcDbVertex
100
AcDb2dVertex
 10
8417736.82162226737
 20
5761345.3688613968
  0
SEQEND
  5
184
100
AcDbEntity
  8
00_FUND_PROJ
  0
POLYLINE
  5
185
100
AcDbEntity
  8
00_FUND_PROJ
  6
CONTINUOUS
370
35
100
AcDb2dPolyline
 66
1
 70
129
  0
VERTEX
  5
186
100
AcDbEntity
  8
00_FUND_PROJ
100
AcDbVertex
100
AcDb2dVertex
 10
8417730.84367480874
 20
5761351.90699941199
  0
VERTEX
  5
187
100
AcDbEntity
  8
00_FUND_PROJ
100
AcDbVertex
100
AcDb2dVertex
 10
8417731.00195890106
 20
5761352.161844749
  0
VERTEX
  5
188
100
AcDbEntity
  8
00_FUND_PROJ
100
AcDbVertex
100
AcDb2dVertex
 10
8417739.13730871864
 20
5761347.10899004061
  0
VERTEX
  5
189
100
AcDbEntity
  8
00_FUND_PROJ
100
AcDbVertex
100
AcDb2dVertex
 10
8417738.97902462632
 20
5761346.8541447036
  0
SEQEND
  5
18A
100
AcDbEntity
  8
00_FUND_PROJ
  0
POLYLINE
  5
18B
100
AcDbEntity
  8
00_FUND_PROJ
  6
CONTINUOUS
370
35
100
AcDb2dPolyline
 66
1
 70
129
  0
VERTEX
  5
18C
100
AcDbEntity
  8
00_FUND_PROJ
100
AcDbVertex
100
AcDb2dVertex
 10
8417732.10994754732
 20
5761353.94576211181
  0
VERTEX
  5
18D
100
AcDbEntity
  8
00_FUND_PROJ
100
AcDbVertex
100
AcDb2dVertex
 10
8417732.2682316415
 20
5761354.20060744975
  0
VERTEX
  5
18E
100
AcDbEntity
  8
00_FUND_PROJ
100
AcDbVertex
100
AcDb2dVertex
 10
8417740.84113547206
 20
5761348.87598853838
  0
VERTEX
  5
18F
100
AcDbEntity
  8
00_FUND_PROJ
100
AcDbVertex
100
AcDb2dVertex
 10
8417740.68285137974
 20
5761348.62114320043
  0
SEQEND
  5
190
100
AcDbEntity
  8
00_FUND_PROJ
  0
POLYLINE
  5
191
100
AcDbEntity
  8
00_FUND_PROJ
  6
CONTINUOUS
370
35
100
AcDb2dPolyline
 66
1
 70
129
  0
VERTEX
  5
192
100
AcDbEntity
  8
00_FUND_PROJ
100
AcDbVertex
100
AcDb2dVertex
 10
8417730.66309046373
 20
5761356.0039298851
  0
VERTEX
  5
193
100
AcDbEntity
  8
00_FUND_PROJ
100
AcDbVertex
100
AcDb2dVertex
 10
8417731.0482484214
 20
5761356.62405353971
  0
VERTEX
  5
194
100
AcDbEntity
  8
00_FUND_PROJ
100
AcDbVertex
100
AcDb2dVertex
 10
8417731.668372076
 20
5761356.2388955811
  0
VERTEX
  5
195
100
AcDbEntity
  8
00_FUND_PROJ
100
AcDbVertex
100
AcDb2dVertex
 10
8417731.28321411833
 20
5761355.6187719265
  0
SEQEND
  5
196
100
AcDbEntity
  8
00_FUND_PROJ
  0
POLYLINE
  5
197
100
AcDbEntity
  8
00_FUND_PROJ
  6
CONTINUOUS
370
35
100
AcDb2dPolyline
 66
1
 70
129
  0
VERTEX
  5
198
100
AcDbEntity
  8
00_FUND_PROJ
100
AcDbVertex
100
AcDb2dVertex
 10
8417740.84113547206
 20
5761348.87598853838
  0
VERTEX
  5
199
100
AcDbEntity
  8
00_FUND_PROJ
100
AcDbVertex
100
AcDb2dVertex
 10
8417740.68285137974
 20
5761348.62114320043
  0
VERTEX
  5
19A
100
AcDbEntity
  8
00_FUND_PROJ
100
AcDbVertex
100
AcDb2dVertex
 10
8417732.10994754732
 20
5761353.94576211181
  0
VERTEX
  5
19B
100
AcDbEntity
  8
00_FUND_PROJ
100
AcDbVertex
100
AcDb2dVertex
 10
8417732.2682316415
 20
5761354.20060744975
  0
SEQEND
  5
19C
100
AcDbEntity
  8
00_FUND_PROJ
  0
POLYLINE
  5
19D
100
AcDbEntity
  8
00_FUND_PROJ
  6
CONTINUOUS
370
35
100
AcDb2dPolyline
 66
1
 70
129
  0
VERTEX
  5
19E
100
AcDbEntity
  8
00_FUND_PROJ
100
AcDbVertex
100
AcDb2dVertex
 10
8417742.10951866768
 20
5761350.91814917512
  0
VERTEX
  5
19F
100
AcDbEntity
  8
00_FUND_PROJ
100
AcDbVertex
100
AcDb2dVertex
 10
8417741.95123457536
 20
5761350.66330383811
  0
VERTEX
  5
1A0
100
AcDbEntity
  8
00_FUND_PROJ
100
AcDbVertex
100
AcDb2dVertex
 10
8417733.37833074294
 20
5761355.98792274948
  0
VERTEX
  5
1A1
100
AcDbEntity
  8
00_FUND_PROJ
100
AcDbVertex
100
AcDb2dVertex
 10
8417733.53661483526
 20
5761356.24276808649
  0
SEQEND
  5
1A2
100
AcDbEntity
  8
00_FUND_PROJ
  0
POLYLINE
  5
1A3
100
AcDbEntity
  8
00_FUND_PROJ
  6
CONTINUOUS
370
35
100
AcDb2dPolyline
 66
1
 70
129
  0
VERTEX
  5
1A4
100
AcDbEntity
  8
00_FUND_PROJ
100
AcDbVertex
100
AcDb2dVertex
 10
8417733.37833074294
 20
5761355.98792274948
  0
VERTEX
  5
1A5
100
AcDbEntity
  8
00_FUND_PROJ
100
AcDbVertex
100
AcDb2dVertex
 10
8417733.53661483526
 20
5761356.24276808649
  0
VERTEX
  5
1A6
100
AcDbEntity
  8
00_FUND_PROJ
100
AcDbVertex
100
AcDb2dVertex
 10
8417742.10951866768
 20
5761350.91814917512
  0
VERTEX
  5
1A7
100
AcDbEntity
  8
00_FUND_PROJ
100
AcDbVertex
100
AcDb2dVertex
 10
8417741.95123457536
 20
5761350.66330383811
  0
SEQEND
  5
1A8
100
AcDbEntity
  8
00_FUND_PROJ
  0
POLYLINE
  5
1A9
100
AcDbEntity
  8
00_FUND_PROJ
  6
CONTINUOUS
370
35
100
AcDb2dPolyline
 66
1
 70
129
  0
VERTEX
  5
1AA
100
AcDbEntity
  8
00_FUND_PROJ
100
AcDbVertex
100
AcDb2dVertex
 10
8417729.95509991609
 20
5761344.31443701219
  0
VERTEX
  5
1AB
100
AcDbEntity
  8
00_FUND_PROJ
100
AcDbVertex
100
AcDb2dVertex
 10
8417728.90849356167
 20
5761348.79225714691
  0
VERTEX
  5
1AC
100
AcDbEntity
  8
00_FUND_PROJ
100
AcDbVertex
100
AcDb2dVertex
 10
8417729.20062018186
 20
5761348.8605362596
  0
VERTEX
  5
1AD
100
AcDbEntity
  8
00_FUND_PROJ
100
AcDbVertex
100
AcDb2dVertex
 10
8417730.24722653814
 20
5761344.38271612301
  0
SEQEND
  5
1AE
100
AcDbEntity
  8
00_FUND_PROJ
  0
POLYLINE
  5
1AF
100
AcDbEntity
  8
00_FUND_PROJ
  6
CONTINUOUS
370
35
100
AcDb2dPolyline
 66
1
 70
129
  0
VERTEX
  5
1B0
100
AcDbEntity
  8
00_FUND_PROJ
100
AcDbVertex
100
AcDb2dVertex
 10
8417743.31338051707
 20
5761355.8209181726
  0
VERTEX
  5
1B1
100
AcDbEntity
  8
00_FUND_PROJ
100
AcDbVertex
100
AcDb2dVertex
 10
8417743.15509642288
 20
5761355.56607283466
  0
VERTEX
  5
1B2
100
AcDbEntity
  8
00_FUND_PROJ
100
AcDbVertex
100
AcDb2dVertex
 10
8417735.91087622382
 20
5761360.06544814911
  0
VERTEX
  5
1B3
100
AcDbEntity
  8
00_FUND_PROJ
100
AcDbVertex
100
AcDb2dVertex
 10
8417736.06916031614
 20
5761360.32029348705
  0
SEQEND
  5
1B4
100
AcDbEntity
  8
00_FUND_PROJ
  0
POLYLINE
  5
1B5
100
AcDbEntity
  8
00_FUND_PROJ
  6
CONTINUOUS
370
35
100
AcDb2dPolyline
 66
1
 70
129
  0
VERTEX
  5
1B6
100
AcDbEntity
  8
00_FUND_PROJ
100
AcDbVertex
100
AcDb2dVertex
 10
8417742.93823739327
 20
5761353.22867607884
  0
VERTEX
  5
1B7
100
AcDbEntity
  8
00_FUND_PROJ
100
AcDbVertex
100
AcDb2dVertex
 10
8417742.77995330095
 20
5761352.9738307409
  0
VERTEX
  5
1B8
100
AcDbEntity
  8
00_FUND_PROJ
100
AcDbVertex
100
AcDb2dVertex
 10
8417734.64460348338
 20
5761358.02668544929
  0
VERTEX
  5
1B9
100
AcDbEntity
  8
00_FUND_PROJ
100
AcDbVertex
100
AcDb2dVertex
 10
8417734.8028875757
 20
5761358.28153078724
  0
SEQEND
  5
1BA
100
AcDbEntity
  8
00_FUND_PROJ
  0
POLYLINE
  5
1BB
100
AcDbEntity
  8
00_FUND_PROJ
  6
CONTINUOUS
370
35
100
AcDb2dPolyline
 66
1
 70
129
  0
VERTEX
  5
1BC
100
AcDbEntity
  8
00_FUND_PROJ
100
AcDbVertex
100
AcDb2dVertex
 10
8417719.02019248158
 20
5761356.42530522868
  0
VERTEX
  5
1BD
100
AcDbEntity
  8
00_FUND_PROJ
100
AcDbVertex
100
AcDb2dVertex
 10
8417719.17847657204
 20
5761356.68015056662
  0
VERTEX
  5
1BE
100
AcDbEntity
  8
00_FUND_PROJ
100
AcDbVertex
100
AcDb2dVertex
 10
8417726.42269677296
 20
5761352.18077525217
  0
VERTEX
  5
1BF
100
AcDbEntity
  8
00_FUND_PROJ
100
AcDbVertex
100
AcDb2dVertex
 10
8417726.26441267878
 20
5761351.92592991423
  0
SEQEND
  5
1C0
100
AcDbEntity
  8
00_FUND_PROJ
  0
POLYLINE
  5
1C1
100
AcDbEntity
  8
00_FUND_PROJ
  6
CONTINUOUS
370
35
100
AcDb2dPolyline
 66
1
 70
129
  0
VERTEX
  5
1C2
100
AcDbEntity
  8
00_FUND_PROJ
100
AcDbVertex
100
AcDb2dVertex
 10
8417719.39533560351
 20
5761359.01754732337
  0
VERTEX
  5
1C3
100
AcDbEntity
  8
00_FUND_PROJ
100
AcDbVertex
100
AcDb2dVertex
 10
8417719.55361969583
 20
5761359.27239266038
  0
VERTEX
  5
1C4
100
AcDbEntity
  8
00_FUND_PROJ
100
AcDbVertex
100
AcDb2dVertex
 10
8417727.6889695134
 20
5761354.21953795198
  0
VERTEX
  5
1C5
100
AcDbEntity
  8
00_FUND_PROJ
100
AcDbVertex
100
AcDb2dVertex
 10
8417727.53068542108
 20
5761353.96469261497
  0
SEQEND
  5
1C6
100
AcDbEntity
  8
00_FUND_PROJ
  0
POLYLINE
  5
1C7
100
AcDbEntity
  8
00_FUND_PROJ
  6
CONTINUOUS
370
35
100
AcDb2dPolyline
 66
1
 70
129
  0
VERTEX
  5
1C8
100
AcDbEntity
  8
00_FUND_PROJ
100
AcDbVertex
100
AcDb2dVertex
 10
8417720.2240543291
 20
5761361.32807422709
  0
VERTEX
  5
1C9
100
AcDbEntity
  8
00_FUND_PROJ
100
AcDbVertex
100
AcDb2dVertex
 10
8417720.38233842142
 20
5761361.58291956503
  0
VERTEX
  5
1CA
100
AcDbEntity
  8
00_FUND_PROJ
100
AcDbVertex
100
AcDb2dVertex
 10
8417728.95524225384
 20
5761356.25830065273
  0
VERTEX
  5
1CB
100
AcDbEntity
  8
00_FUND_PROJ
100
AcDbVertex
100
AcDb2dVertex
 10
8417728.79695815966
 20
5761356.00345531479
  0
SEQEND
  5
1CC
100
AcDbEntity
  8
00_FUND_PROJ
  0
POLYLINE
  5
1CD
100
AcDbEntity
  8
00_FUND_PROJ
  6
CONTINUOUS
370
35
100
AcDb2dPolyline
 66
1
 70
129
  0
VERTEX
  5
1CE
100
AcDbEntity
  8
00_FUND_PROJ
100
AcDbVertex
100
AcDb2dVertex
 10
8417728.95524225384
 20
5761356.25830065273
  0
VERTEX
  5
1CF
100
AcDbEntity
  8
00_FUND_PROJ
100
AcDbVertex
100
AcDb2dVertex
 10
8417728.79695815966
 20
5761356.00345531479
  0
VERTEX
  5
1D0
100
AcDbEntity
  8
00_FUND_PROJ
100
AcDbVertex
100
AcDb2dVertex
 10
8417720.2240543291
 20
5761361.32807422709
  0
VERTEX
  5
1D1
100
AcDbEntity
  8
00_FUND_PROJ
100
AcDbVertex
100
AcDb2dVertex
 10
8417720.38233842142
 20
5761361.58291956503
  0
SEQEND
  5
1D2
100
AcDbEntity
  8
00_FUND_PROJ
  0
POLYLINE
  5
1D3
100
AcDbEntity
  8
00_FUND_PROJ
  6
CONTINUOUS
370
35
100
AcDb2dPolyline
 66
1
 70
129
  0
VERTEX
  5
1D4
100
AcDbEntity
  8
00_FUND_PROJ
100
AcDbVertex
100
AcDb2dVertex
 10
8417730.2236254476
 20
5761358.30046128947
  0
VERTEX
  5
1D5
100
AcDbEntity
  8
00_FUND_PROJ
100
AcDbVertex
100
AcDb2dVertex
 10
8417730.06534135528
 20
5761358.04561595246
  0
VERTEX
  5
1D6
100
AcDbEntity
  8
00_FUND_PROJ
100
AcDbVertex
100
AcDb2dVertex
 10
8417721.49243752286
 20
5761363.37023486476
  0
VERTEX
  5
1D7
100
AcDbEntity
  8
00_FUND_PROJ
100
AcDbVertex
100
AcDb2dVertex
 10
8417721.65072161518
 20
5761363.62508020178
  0
SEQEND
  5
1D8
100
AcDbEntity
  8
00_FUND_PROJ
  0
POLYLINE
  5
1D9
100
AcDbEntity
  8
00_FUND_PROJ
  6
CONTINUOUS
370
35
100
AcDb2dPolyline
 66
1
 70
129
  0
VERTEX
  5
1DA
100
AcDbEntity
  8
00_FUND_PROJ
100
AcDbVertex
100
AcDb2dVertex
 10
8417721.49243752286
 20
5761363.37023486476
  0
VERTEX
  5
1DB
100
AcDbEntity
  8
00_FUND_PROJ
100
AcDbVertex
100
AcDb2dVertex
 10
8417721.65072161518
 20
5761363.62508020178
  0
VERTEX
  5
1DC
100
AcDbEntity
  8
00_FUND_PROJ
100
AcDbVertex
100
AcDb2dVertex
 10
8417730.2236254476
 20
5761358.30046128947
  0
VERTEX
  5
1DD
100
AcDbEntity
  8
00_FUND_PROJ
100
AcDbVertex
100
AcDb2dVertex
 10
8417730.06534135528
 20
5761358.04561595246
  0
SEQEND
  5
1DE
100
AcDbEntity
  8
00_FUND_PROJ
  0
POLYLINE
  5
1DF
100
AcDbEntity
  8
00_FUND_PROJ
  6
CONTINUOUS
370
35
100
AcDb2dPolyline
 66
1
 70
129
  0
VERTEX
  5
1E0
100
AcDbEntity
  8
00_FUND_PROJ
100
AcDbVertex
100
AcDb2dVertex
 10
8417732.75617092848
 20
5761362.37798669003
  0
VERTEX
  5
1E1
100
AcDbEntity
  8
00_FUND_PROJ
100
AcDbVertex
100
AcDb2dVertex
 10
8417732.59788683616
 20
5761362.12314135209
  0
VERTEX
  5
1E2
100
AcDbEntity
  8
00_FUND_PROJ
100
AcDbVertex
100
AcDb2dVertex
 10
8417725.35366663709
 20
5761366.62251666654
  0
VERTEX
  5
1E3
100
AcDbEntity
  8
00_FUND_PROJ
100
AcDbVertex
100
AcDb2dVertex
 10
8417725.51195073128
 20
5761366.87736200448
  0
SEQEND
  5
1E4
100
AcDbEntity
  8
00_FUND_PROJ
  0
POLYLINE
  5
1E5
100
AcDbEntity
  8
00_FUND_PROJ
  6
CONTINUOUS
370
35
100
AcDb2dPolyline
 66
1
 70
129
  0
VERTEX
  5
1E6
100
AcDbEntity
  8
00_FUND_PROJ
100
AcDbVertex
100
AcDb2dVertex
 10
8417731.48989818804
 20
5761360.33922399022
  0
VERTEX
  5
1E7
100
AcDbEntity
  8
00_FUND_PROJ
100
AcDbVertex
100
AcDb2dVertex
 10
8417731.33161409572
 20
5761360.08437865227
  0
VERTEX
  5
1E8
100
AcDbEntity
  8
00_FUND_PROJ
100
AcDbVertex
100
AcDb2dVertex
 10
8417723.19626427814
 20
5761365.13723336067
  0
VERTEX
  5
1E9
100
AcDbEntity
  8
00_FUND_PROJ
100
AcDbVertex
100
AcDb2dVertex
 10
8417723.35454837047
 20
5761365.39207869861
  0
SEQEND
  5
1EA
100
AcDbEntity
  8
00_FUND_PROJ
  0
POLYLINE
  5
1EB
100
AcDbEntity
  8
00_FUND_PROJ
  6
CONTINUOUS
370
35
100
AcDb2dPolyline
 66
1
 70
129
  0
VERTEX
  5
1EC
100
AcDbEntity
  8
00_FUND_PROJ
100
AcDbVertex
100
AcDb2dVertex
 10
8417721.05029838346
 20
5761350.09491569269
  0
VERTEX
  5
1ED
100
AcDbEntity
  8
00_FUND_PROJ
100
AcDbVertex
100
AcDb2dVertex
 10
8417725.52811852098
 20
5761351.14152204711
  0
VERTEX
  5
1EE
100
AcDbEntity
  8
00_FUND_PROJ
100
AcDbVertex
100
AcDb2dVertex
 10
8417725.59639763273
 20
5761350.84939542506
  0
VERTEX
  5
1EF
100
AcDbEntity
  8
00_FUND_PROJ
100
AcDbVertex
100
AcDb2dVertex
 10
8417721.11857749522
 20
5761349.80278907064
  0
SEQEND
  5
1F0
100
AcDbEntity
  8
00_FUND_PROJ
  0
CIRCLE
  5
1F1
100
AcDbEntity
  8
A_Siatka
  6
CONTINUOUS
370
18
100
AcDbCircle
 10
8417716.92083499953
 20
5761333.18726931606
 40
12.855000000447
  0
CIRCLE
  5
1F2
100
AcDbEntity
  8
A_Siatka
  6
CONTINUOUS
370
18
100
AcDbCircle
 10
8417731.16678649746
 20
5761356.12311170064
 40
12.855000000447
  0
POLYLINE
  5
1F3
100
AcDbEntity
  8
A_Siatka
  6
CONTINUOUS
370
18
100
AcDb2dPolyline
 66
1
 70
128
  0
VERTEX
  5
1F4
100
AcDbEntity
  8
A_Siatka
100
AcDbVertex
100
AcDb2dVertex
 10
8417724.2290390674
 20
5761321.58269189484
  0
VERTEX
  5
1F5
100
AcDbEntity
  8
A_Siatka
100
AcDbVertex
100
AcDb2dVertex
 10
8417703.38636688143
 20
5761334.52804724686
  0
SEQEND
  5
1F6
100
AcDbEntity
  8
A_Siatka
  0
POLYLINE
  5
1F7
100
AcDbEntity
  8
A_Siatka
  6
CONTINUOUS
370
18
100
AcDb2dPolyline
 66
1
 70
128
  0
VERTEX
  5
1F8
100
AcDbEntity
  8
A_Siatka
100
AcDbVertex
100
AcDb2dVertex
 10
8417721.39410942607
 20
5761320.51561611332
  0
VERTEX
  5
1F9
100
AcDbEntity
  8
A_Siatka
100
AcDbVertex
100
AcDb2dVertex
 10
8417703.5792069342
 20
5761331.58042782452
  0
SEQEND
  5
1FA
100
AcDbEntity
  8
A_Siatka
  0
POLYLINE
  5
1FB
100
AcDbEntity
  8
A_Siatka
  6
CONTINUOUS
370
18
100
AcDb2dPolyline
 66
1
 70
128
  0
VERTEX
  5
1FC
100
AcDbEntity
  8
A_Siatka
100
AcDbVertex
100
AcDb2dVertex
 10
8417717.53102387674
 20
5761320.0945505714
  0
VERTEX
  5
1FD
100
AcDbEntity
  8
A_Siatka
100
AcDbVertex
100
AcDb2dVertex
 10
8417704.83066560514
 20
5761327.98272582237
  0
SEQEND
  5
1FE
100
AcDbEntity
  8
A_Siatka
  0
POLYLINE
  5
1FF
100
AcDbEntity
  8
A_Siatka
  6
CONTINUOUS
370
18
100
AcDb2dPolyline
 66
1
 70
128
  0
VERTEX
  5
200
100
AcDbEntity
  8
A_Siatka
100
AcDbVertex
100
AcDb2dVertex
 10
8417729.29601439461
 20
5761326.91603807919
  0
VERTEX
  5
201
100
AcDbEntity
  8
A_Siatka
100
AcDbVertex
100
AcDb2dVertex
 10
8417705.81403880008
 20
5761341.5006611878
  0
SEQEND
  5
202
100
AcDbEntity
  8
A_Siatka
  0
POLYLINE
  5
203
100
AcDbEntity
  8
A_Siatka
  6
CONTINUOUS
370
18
100
AcDb2dPolyline
 66
1
 70
128
  0
VERTEX
  5
204
100
AcDbEntity
  8
A_Siatka
100
AcDbVertex
100
AcDb2dVertex
 10
8417730.13884921186
 20
5761329.21779749822
  0
VERTEX
  5
205
100
AcDbEntity
  8
A_Siatka
100
AcDbVertex
100
AcDb2dVertex
 10
8417707.50374946184
 20
5761343.27642717119
  0
SEQEND
  5
206
100
AcDbEntity
  8
A_Siatka
  0
POLYLINE
  5
207
100
AcDbEntity
  8
A_Siatka
  6
CONTINUOUS
370
18
100
AcDb2dPolyline
 66
1
 70
128
  0
VERTEX
  5
208
100
AcDbEntity
  8
A_Siatka
100
AcDbVertex
100
AcDb2dVertex
 10
8417730.507107649
 20
5761331.81431566086
  0
VERTEX
  5
209
100
AcDbEntity
  8
A_Siatka
100
AcDbVertex
100
AcDb2dVertex
 10
8417709.66803650558
 20
5761344.75743440911
  0
SEQEND
  5
20A
100
AcDbEntity
  8
A_Siatka
  0
POLYLINE
  5
20B
100
AcDbEntity
  8
A_Siatka
  6
CONTINUOUS
370
18
100
AcDb2dPolyline
 66
1
 70
128
  0
VERTEX
  5
20C
100
AcDbEntity
  8
A_Siatka
100
AcDbVertex
100
AcDb2dVertex
 10
8417730.25834668614
 20
5761334.79406373389
  0
VERTEX
  5
20D
100
AcDbEntity
  8
A_Siatka
100
AcDbVertex
100
AcDb2dVertex
 10
8417712.44934295304
 20
5761345.85521173384
  0
SEQEND
  5
20E
100
AcDbEntity
  8
A_Siatka
  0
POLYLINE
  5
20F
100
AcDbEntity
  8
A_Siatka
  6
CONTINUOUS
370
18
100
AcDb2dPolyline
 66
1
 70
128
  0
VERTEX
  5
210
100
AcDbEntity
  8
A_Siatka
100
AcDbVertex
100
AcDb2dVertex
 10
8417727.11818495579
 20
5761339.56744038686
  0
VERTEX
  5
211
100
AcDbEntity
  8
A_Siatka
100
AcDbVertex
100
AcDb2dVertex
 10
8417717.85645877942
 20
5761345.31988592073
  0
SEQEND
  5
212
100
AcDbEntity
  8
A_Siatka
  0
POLYLINE
  5
213
100
AcDbEntity
  8
A_Siatka
  6
CONTINUOUS
370
18
100
AcDb2dPolyline
 66
1
 70
128
  0
VERTEX
  5
214
100
AcDbEntity
  8
A_Siatka
100
AcDbVertex
100
AcDb2dVertex
 10
8417705.12786700763
 20
5761340.51186569873
  0
VERTEX
  5
215
100
AcDbEntity
  8
A_Siatka
100
AcDbVertex
100
AcDb2dVertex
 10
8417728.7138029933
 20
5761325.86267293245
  0
SEQEND
  5
216
100
AcDbEntity
  8
A_Siatka
  0
POLYLINE
  5
217
100
AcDbEntity
  8
A_Siatka
  6
CONTINUOUS
370
18
100
AcDb2dPolyline
 66
1
 70
128
  0
VERTEX
  5
218
100
AcDbEntity
  8
A_Siatka
100
AcDbVertex
100
AcDb2dVertex
 10
8417722.58130218834
 20
5761344.85959621333
  0
VERTEX
  5
219
100
AcDbEntity
  8
A_Siatka
100
AcDbVertex
100
AcDb2dVertex
 10
8417708.96887022816
 20
5761322.94289718848
  0
SEQEND
  5
21A
100
AcDbEntity
  8
A_Siatka
  0
POLYLINE
  5
21B
100
AcDbEntity
  8
A_Siatka
  6
CONTINUOUS
370
18
100
AcDb2dPolyline
 66
1
 70
128
  0
VERTEX
  5
21C
100
AcDbEntity
  8
A_Siatka
100
AcDbVertex
100
AcDb2dVertex
 10
8417724.87491022609
 20
5761343.43503938057
  0
VERTEX
  5
21D
100
AcDbEntity
  8
A_Siatka
100
AcDbVertex
100
AcDb2dVertex
 10
8417711.26247826591
 20
5761321.51834035572
  0
SEQEND
  5
21E
100
AcDbEntity
  8
A_Siatka
  0
POLYLINE
  5
21F
100
AcDbEntity
  8
A_Siatka
  6
CONTINUOUS
370
18
100
AcDb2dPolyline
 66
1
 70
128
  0
VERTEX
  5
220
100
AcDbEntity
  8
A_Siatka
100
AcDbVertex
100
AcDb2dVertex
 10
8417728.02763119899
 20
5761324.87387744151
  0
VERTEX
  5
221
100
AcDbEntity
  8
A_Siatka
100
AcDbVertex
100
AcDb2dVertex
 10
8417704.54565560445
 20
5761339.45850055013
  0
SEQEND
  5
222
100
AcDbEntity
  8
A_Siatka
  0
POLYLINE
  5
223
100
AcDbEntity
  8
A_Siatka
  6
CONTINUOUS
370
18
100
AcDb2dPolyline
 66
1
 70
128
  0
VERTEX
  5
224
100
AcDbEntity
  8
A_Siatka
100
AcDbVertex
100
AcDb2dVertex
 10
8417719.26066165976
 20
5761339.51022890862
  0
VERTEX
  5
225
100
AcDbEntity
  8
A_Siatka
100
AcDbVertex
100
AcDb2dVertex
 10
8417717.51180494949
 20
5761346.99257005844
  0
SEQEND
  5
226
100
AcDbEntity
  8
A_Siatka
  0
POLYLINE
  5
227
100
AcDbEntity
  8
A_Siatka
  6
CONTINUOUS
370
18
100
AcDb2dPolyline
 66
1
 70
128
  0
VERTEX
  5
228
100
AcDbEntity
  8
A_Siatka
100
AcDbVertex
100
AcDb2dVertex
 10
8417727.1989124734
 20
5761322.56335053872
  0
VERTEX
  5
229
100
AcDbEntity
  8
A_Siatka
100
AcDbVertex
100
AcDb2dVertex
 10
8417703.71693687886
 20
5761337.14797364734
  0
SEQEND
  5
22A
100
AcDbEntity
  8
A_Siatka
  0
POLYLINE
  5
22B
100
AcDbEntity
  8
A_Siatka
  6
CONTINUOUS
370
18
100
AcDb2dPolyline
 66
1
 70
128
  0
VERTEX
  5
22C
100
AcDbEntity
  8
A_Siatka
100
AcDbVertex
100
AcDb2dVertex
 10
8417721.49070515297
 20
5761338.10910093598
  0
VERTEX
  5
22D
100
AcDbEntity
  8
A_Siatka
100
AcDbVertex
100
AcDb2dVertex
 10
8417728.99075331353
 20
5761339.78038979508
  0
SEQEND
  5
22E
100
AcDbEntity
  8
A_Siatka
  0
POLYLINE
  5
22F
100
AcDbEntity
  8
A_Siatka
  6
CONTINUOUS
370
18
100
AcDb2dPolyline
 66
1
 70
128
  0
VERTEX
  5
230
100
AcDbEntity
  8
A_Siatka
100
AcDbVertex
100
AcDb2dVertex
 10
8417726.35445984267
 20
5761348.37587903533
  0
VERTEX
  5
231
100
AcDbEntity
  8
A_Siatka
100
AcDbVertex
100
AcDb2dVertex
 10
8417709.59623861685
 20
5761321.39430132322
  0
SEQEND
  5
232
100
AcDbEntity
  8
A_Siatka
  0
POLYLINE
  5
233
100
AcDbEntity
  8
A_Siatka
  6
CONTINUOUS
370
18
100
AcDb2dPolyline
 66
1
 70
128
  0
VERTEX
  5
234
100
AcDbEntity
  8
A_Siatka
100
AcDbVertex
100
AcDb2dVertex
 10
8417723.85858242959
 20
5761367.72768912185
  0
VERTEX
  5
235
100
AcDbEntity
  8
A_Siatka
100
AcDbVertex
100
AcDb2dVertex
 10
8417744.70125461556
 20
5761354.78233376984
  0
SEQEND
  5
236
100
AcDbEntity
  8
A_Siatka
  0
POLYLINE
  5
237
100
AcDbEntity
  8
A_Siatka
  6
CONTINUOUS
370
18
100
AcDb2dPolyline
 66
1
 70
128
  0
VERTEX
  5
238
100
AcDbEntity
  8
A_Siatka
100
AcDbVertex
100
AcDb2dVertex
 10
8417726.69351207092
 20
5761368.79476490337
  0
VERTEX
  5
239
100
AcDbEntity
  8
A_Siatka
100
AcDbVertex
100
AcDb2dVertex
 10
8417744.50841456279
 20
5761357.72995319217
  0
SEQEND
  5
23A
100
AcDbEntity
  8
A_Siatka
  0
POLYLINE
  5
23B
100
AcDbEntity
  8
A_Siatka
  6
CONTINUOUS
370
18
100
AcDb2dPolyline
 66
1
 70
128
  0
VERTEX
  5
23C
100
AcDbEntity
  8
A_Siatka
100
AcDbVertex
100
AcDb2dVertex
 10
8417730.55659762025
 20
5761369.21583044529
  0
VERTEX
  5
23D
100
AcDbEntity
  8
A_Siatka
100
AcDbVertex
100
AcDb2dVertex
 10
8417743.25695589185
 20
5761361.32765519433
  0
SEQEND
  5
23E
100
AcDbEntity
  8
A_Siatka
  0
POLYLINE
  5
23F
100
AcDbEntity
  8
A_Siatka
  6
CONTINUOUS
370
18
100
AcDb2dPolyline
 66
1
 70
128
  0
VERTEX
  5
240
100
AcDbEntity
  8
A_Siatka
100
AcDbVertex
100
AcDb2dVertex
 10
8417718.79160710238
 20
5761362.39434293751
  0
VERTEX
  5
241
100
AcDbEntity
  8
A_Siatka
100
AcDbVertex
100
AcDb2dVertex
 10
8417742.27358269692
 20
5761347.80971982889
  0
SEQEND
  5
242
100
AcDbEntity
  8
A_Siatka
  0
POLYLINE
  5
243
100
AcDbEntity
  8
A_Siatka
  6
CONTINUOUS
370
18
100
AcDb2dPolyline
 66
1
 70
128
  0
VERTEX
  5
244
100
AcDbEntity
  8
A_Siatka
100
AcDbVertex
100
AcDb2dVertex
 10
8417717.94877228513
 20
5761360.09258351848
  0
VERTEX
  5
245
100
AcDbEntity
  8
A_Siatka
100
AcDbVertex
100
AcDb2dVertex
 10
8417740.58387203515
 20
5761346.0339538455
  0
SEQEND
  5
246
100
AcDbEntity
  8
A_Siatka
  0
POLYLINE
  5
247
100
AcDbEntity
  8
A_Siatka
  6
CONTINUOUS
370
18
100
AcDb2dPolyline
 66
1
 70
128
  0
VERTEX
  5
248
100
AcDbEntity
  8
A_Siatka
100
AcDbVertex
100
AcDb2dVertex
 10
8417717.58051384799
 20
5761357.49606535584
  0
VERTEX
  5
249
100
AcDbEntity
  8
A_Siatka
100
AcDbVertex
100
AcDb2dVertex
 10
8417738.41958499141
 20
5761344.55294660758
  0
SEQEND
  5
24A
100
AcDbEntity
  8
A_Siatka
  0
POLYLINE
  5
24B
100
AcDbEntity
  8
A_Siatka
  6
CONTINUOUS
370
18
100
AcDb2dPolyline
 66
1
 70
128
  0
VERTEX
  5
24C
100
AcDbEntity
  8
A_Siatka
100
AcDbVertex
100
AcDb2dVertex
 10
8417717.82927481085
 20
5761354.5163172828
  0
VERTEX
  5
24D
100
AcDbEntity
  8
A_Siatka
100
AcDbVertex
100
AcDb2dVertex
 10
8417735.63827854395
 20
5761343.45516928285
  0
SEQEND
  5
24E
100
AcDbEntity
  8
A_Siatka
  0
POLYLINE
  5
24F
100
AcDbEntity
  8
A_Siatka
  6
CONTINUOUS
370
18
100
AcDb2dPolyline
 66
1
 70
128
  0
VERTEX
  5
250
100
AcDbEntity
  8
A_Siatka
100
AcDbVertex
100
AcDb2dVertex
 10
8417720.9694365412
 20
5761349.74294062983
  0
VERTEX
  5
251
100
AcDbEntity
  8
A_Siatka
100
AcDbVertex
100
AcDb2dVertex
 10
8417730.23116271757
 20
5761343.99049509596
  0
SEQEND
  5
252
100
AcDbEntity
  8
A_Siatka
  0
POLYLINE
  5
253
100
AcDbEntity
  8
A_Siatka
  6
CONTINUOUS
370
18
100
AcDb2dPolyline
 66
1
 70
128
  0
VERTEX
  5
254
100
AcDbEntity
  8
A_Siatka
100
AcDbVertex
100
AcDb2dVertex
 10
8417742.95975448936
 20
5761348.79851531796
  0
VERTEX
  5
255
100
AcDbEntity
  8
A_Siatka
100
AcDbVertex
100
AcDb2dVertex
 10
8417719.37381850369
 20
5761363.44770808425
  0
SEQEND
  5
256
100
AcDbEntity
  8
A_Siatka
  0
POLYLINE
  5
257
100
AcDbEntity
  8
A_Siatka
  6
CONTINUOUS
370
18
100
AcDb2dPolyline
 66
1
 70
128
  0
VERTEX
  5
258
100
AcDbEntity
  8
A_Siatka
100
AcDbVertex
100
AcDb2dVertex
 10
8417725.50631930865
 20
5761344.45078480337
  0
VERTEX
  5
259
100
AcDbEntity
  8
A_Siatka
100
AcDbVertex
100
AcDb2dVertex
 10
8417739.11875126883
 20
5761366.36748382822
  0
SEQEND
  5
25A
100
AcDbEntity
  8
A_Siatka
  0
POLYLINE
  5
25B
100
AcDbEntity
  8
A_Siatka
  6
CONTINUOUS
370
18
100
AcDb2dPolyline
 66
1
 70
128
  0
VERTEX
  5
25C
100
AcDbEntity
  8
A_Siatka
100
AcDbVertex
100
AcDb2dVertex
 10
8417723.2127112709
 20
5761345.87534163613
  0
VERTEX
  5
25D
100
AcDbEntity
  8
A_Siatka
100
AcDbVertex
100
AcDb2dVertex
 10
8417736.82514323108
 20
5761367.79204066098
  0
SEQEND
  5
25E
100
AcDbEntity
  8
A_Siatka
  0
POLYLINE
  5
25F
100
AcDbEntity
  8
A_Siatka
  6
CONTINUOUS
370
18
100
AcDb2dPolyline
 66
1
 70
128
  0
VERTEX
  5
260
100
AcDbEntity
  8
A_Siatka
100
AcDbVertex
100
AcDb2dVertex
 10
8417720.059990298
 20
5761364.43650357518
  0
VERTEX
  5
261
100
AcDbEntity
  8
A_Siatka
100
AcDbVertex
100
AcDb2dVertex
 10
8417743.54196589254
 20
5761349.85188046657
  0
SEQEND
  5
262
100
AcDbEntity
  8
A_Siatka
  0
POLYLINE
  5
263
100
AcDbEntity
  8
A_Siatka
  6
CONTINUOUS
370
18
100
AcDb2dPolyline
 66
1
 70
128
  0
VERTEX
  5
264
100
AcDbEntity
  8
A_Siatka
100
AcDbVertex
100
AcDb2dVertex
 10
8417728.82695983723
 20
5761349.80015210807
  0
VERTEX
  5
265
100
AcDbEntity
  8
A_Siatka
100
AcDbVertex
100
AcDb2dVertex
 10
8417730.5758165475
 20
5761342.31781095825
  0
SEQEND
  5
266
100
AcDbEntity
  8
A_Siatka
  0
POLYLINE
  5
267
100
AcDbEntity
  8
A_Siatka
  6
CONTINUOUS
370
18
100
AcDb2dPolyline
 66
1
 70
128
  0
VERTEX
  5
268
100
AcDbEntity
  8
A_Siatka
100
AcDbVertex
100
AcDb2dVertex
 10
8417720.88870902359
 20
5761366.74703047797
  0
VERTEX
  5
269
100
AcDbEntity
  8
A_Siatka
100
AcDbVertex
100
AcDb2dVertex
 10
8417744.37068461813
 20
5761352.16240736935
  0
SEQEND
  5
26A
100
AcDbEntity
  8
A_Siatka
  0
POLYLINE
  5
26B
100
AcDbEntity
  8
A_Siatka
  6
CONTINUOUS
370
18
100
AcDb2dPolyline
 66
1
 70
128
  0
VERTEX
  5
26C
100
AcDbEntity
  8
A_Siatka
100
AcDbVertex
100
AcDb2dVertex
 10
8417726.59691634402
 20
5761351.20128008071
  0
VERTEX
  5
26D
100
AcDbEntity
  8
A_Siatka
100
AcDbVertex
100
AcDb2dVertex
 10
8417719.09686818346
 20
5761349.52999122161
  0
SEQEND
  5
26E
100
AcDbEntity
  8
A_Siatka
  0
POLYLINE
  5
26F
100
AcDbEntity
  8
A_Siatka
  6
CONTINUOUS
370
18
100
AcDb2dPolyline
 66
1
 70
128
  0
VERTEX
  5
270
100
AcDbEntity
  8
A_Siatka
100
AcDbVertex
100
AcDb2dVertex
 10
8417721.73316165432
 20
5761340.93450198136
  0
VERTEX
  5
271
100
AcDbEntity
  8
A_Siatka
100
AcDbVertex
100
AcDb2dVertex
 10
8417738.49138288014
 20
5761367.91607969347
  0
SEQEND
  5
272
100
AcDbEntity
  8
A_Siatka
  0
ENDSEC
  0
SECTION
  2
OBJECTS
  0
DICTIONARY
  5
273
330
0
100
AcDbDictionary
280
0
281
1
  3
ACAD_GROUP
350
274
  3
ACAD_LAYOUT
350
275
  3
ACAD_MLINESTYLE
350
276
  3
ACAD_PLOTSETTINGS
350
277
  3
ACAD_PLOTSTYLENAME
350
278
  0
DICTIONARY
  5
274
102
{ACAD_REACTORS
330
273
102
}
330
273
100
AcDbDictionary
280
0
281
1
  0
DICTIONARY
  5
275
102
{ACAD_REACTORS
330
273
102
}
330
273
100
AcDbDictionary
280
0
281
1
  3
Layout
350
1A
  3
Model
350
18
  0
DICTIONARY
  5
276
102
{ACAD_REACTORS
330
273
102
}
330
273
100
AcDbDictionary
280
0
281
1
  3
Standard
350
279
  0
DICTIONARY
  5
277
102
{ACAD_REACTORS
330
273
102
}
330
273
100
AcDbDictionary
280
0
281
1
  0
ACDBDICTIONARYWDFLT
  5
278
102
{ACAD_REACTORS
330
273
102
}
330
273
100
AcDbDictionary
281
1
  3
Normal
350
A
100
AcDbDictionaryWithDefault
340
A
  0
LAYOUT
  5
1A
100
AcDbPlotSettings
  1

  2

  4

  6

 40
0.0
 41
0.0
 42
0.0
 43
0.0
 44
0.0
 45
0.0
 46
0.0
 47
0.0
 48
0.0
 49
0.0
140
0.0
141
0.0
142
1.0
143
1.0
 70
688
 72
1
 73
0
 74
5
  7

 75
0
147
1.0
148
0.0
149
0.0
100
AcDbLayout
  1
Layout
 70
1
 71
1
 10
0.0
 20
0.0
 11
420.0
 21
297.0
 12
0.0
 22
0.0
 32
0.0
 14
100000000000000000000.0
 24
100000000000000000000.0
 34
100000000000000000000.0
 15
-100000000000000000000.0
 25
-100000000000000000000.0
 35
-100000000000000000000.0
146
0.0
 13
0.0
 23
0.0
 33
0.0
 16
1.0
 26
0.0
 36
0.0
 17
0.0
 27
1.0
 37
0.0
 76
0
330
19
  0
LAYOUT
  5
18
100
AcDbPlotSettings
  1

  2

  4

  6

 40
0.0
 41
0.0
 42
0.0
 43
0.0
 44
0.0
 45
0.0
 46
0.0
 47
0.0
 48
0.0
 49
0.0
140
0.0
141
0.0
142
1.0
143
1.0
 70
1712
 72
1
 73
0
 74
0
  7

 75
0
147
1.0
148
0.0
149
0.0
100
AcDbLayout
  1
Model
 70
1
 71
0
 10
0.0
 20
0.0
 11
12.0
 21
9.0
 12
0.0
 22
0.0
 32
0.0
 14
0.0
 24
0.0
 34
0.0
 15
0.0
 25
0.0
 35
0.0
146
0.0
 13
0.0
 23
0.0
 33
0.0
 16
1.0
 26
0.0
 36
0.0
 17
0.0
 27
1.0
 37
0.0
 76
0
330
17
  0
MLINESTYLE
  5
279
102
{ACAD_REACTORS
330
276
102
}
330
276
100
AcDbMlineStyle
  2
Standard
 70
0
  3

 62
256
 51
90.0
 52
90.0
  2
Standard
 71
2
 49
0.5
 62
256
  6
ByLayer
 49
-0.5
 62
256
  6
ByLayer
  0
ACDBPLACEHOLDER
  5
A
  0
ENDSEC
  0
EOF
